ISO-10303-21;
HEADER;
FILE_DESCRIPTION (( 'STEP AP214' ),
    '1' );
FILE_NAME ('7910430',
    '2019-02-01T13:41:00',
    ( '' ),
    ('JUGARD+KÜNSTNER GmbH'),
    'SwSTEP 2.0',
    'SolidWorks 2017',
    '' );
FILE_SCHEMA (( 'AUTOMOTIVE_DESIGN' ));
ENDSEC;

DATA;
#1 = DIRECTION ( 'NONE',  ( -0.0000000000000000000, -0.0000000000000000000, 1.000000000000000000 ) ) ;
#2 = DIRECTION ( 'NONE',  ( 0.0000000000000000000, -0.0000000000000000000, -1.000000000000000000 ) ) ;
#3 = ORIENTED_EDGE ( 'NONE', *, *, #162, .T. ) ;
#4 = EDGE_LOOP ( 'NONE', ( #255, #75, #9, #88 ) ) ;
#5 = DIRECTION ( 'NONE',  ( 0.0000000000000000000, 0.0000000000000000000, 1.000000000000000000 ) ) ;
#6 = AXIS2_PLACEMENT_3D ( 'NONE', #198, #177, #266 ) ;
#7 = FILL_AREA_STYLE_COLOUR ( '', #161 ) ;
#8 = ADVANCED_FACE ( 'NONE', ( #83 ), #237, .T. ) ;
#9 = ORIENTED_EDGE ( 'NONE', *, *, #54, .F. ) ;
#10 = CARTESIAN_POINT ( 'NONE',  ( -66.78566336631890000, -9.081470464920281300, 1.380506584136770100E-026 ) ) ;
#11 =( NAMED_UNIT ( * ) SI_UNIT ( $, .STERADIAN. ) SOLID_ANGLE_UNIT ( ) );
#12 = DIRECTION ( 'NONE',  ( 1.000000000000000000, 0.0000000000000000000, -0.0000000000000000000 ) ) ;
#13 = VECTOR ( 'NONE', #156, 1000.000000000000000 ) ;
#14 = ORIENTED_EDGE ( 'NONE', *, *, #64, .F. ) ;
#15 = CIRCLE ( 'NONE', #226, 14.12403393752169300 ) ;
#16 = AXIS2_PLACEMENT_3D ( 'NONE', #10, #67, #220 ) ;
#17 = PLANE ( 'NONE',  #186 ) ;
#18 = AXIS2_PLACEMENT_3D ( 'NONE', #228, #98, #103 ) ;
#19 = VECTOR ( 'NONE', #219, 1000.000000000000000 ) ;
#20 = ORIENTED_EDGE ( 'NONE', *, *, #162, .F. ) ;
#21 = ORIENTED_EDGE ( 'NONE', *, *, #147, .F. ) ;
#22 = PRODUCT_DEFINITION ( 'UNKNOWN', '', #135, #150 ) ;
#23 = ORIENTED_EDGE ( 'NONE', *, *, #151, .T. ) ;
#24 = ORIENTED_EDGE ( 'NONE', *, *, #54, .T. ) ;
#25 = VECTOR ( 'NONE', #119, 1000.000000000000000 ) ;
#26 = VERTEX_POINT ( 'NONE', #139 ) ;
#27 = PRODUCT_RELATED_PRODUCT_CATEGORY ( 'part', '', ( #181 ) ) ;
#28 = DIRECTION ( 'NONE',  ( 0.0000000000000000000, 0.0000000000000000000, 1.000000000000000000 ) ) ;
#29 = AXIS2_PLACEMENT_3D ( 'NONE', #60, #232, #254 ) ;
#30 = FACE_OUTER_BOUND ( 'NONE', #57, .T. ) ;
#31 = ORIENTED_EDGE ( 'NONE', *, *, #105, .F. ) ;
#32 = CARTESIAN_POINT ( 'NONE',  ( 3.588286626933180100, 5.000000000000000000, 1.380506584136770100E-026 ) ) ;
#33 = VECTOR ( 'NONE', #2, 1000.000000000000000 ) ;
#34 = LINE ( 'NONE', #45, #84 ) ;
#35 = CARTESIAN_POINT ( 'NONE',  ( -66.78566336629585000, -1.734871714838133100E-015, 1.380506584136770100E-026 ) ) ;
#36 = AXIS2_PLACEMENT_3D ( 'NONE', #72, #28, #12 ) ;
#37 = LINE ( 'NONE', #175, #13 ) ;
#38 = DIRECTION ( 'NONE',  ( -1.000000000000000000, -2.710222385266052900E-015, 0.0000000000000000000 ) ) ;
#39 = ORIENTED_EDGE ( 'NONE', *, *, #147, .T. ) ;
#40 = VERTEX_POINT ( 'NONE', #35 ) ;
#41 = DIRECTION ( 'NONE',  ( 0.0000000000000000000, -1.000000000000000000, -0.0000000000000000000 ) ) ;
#42 = SURFACE_STYLE_FILL_AREA ( #49 ) ;
#43 = ORIENTED_EDGE ( 'NONE', *, *, #211, .F. ) ;
#44 = EDGE_CURVE ( 'NONE', #157, #40, #264, .T. ) ;
#45 = CARTESIAN_POINT ( 'NONE',  ( 73.96223662018380200, 5.000000000000000000, 1.380506584136770100E-026 ) ) ;
#46 =( NAMED_UNIT ( * ) PLANE_ANGLE_UNIT ( ) SI_UNIT ( $, .RADIAN. ) );
#47 = ORIENTED_EDGE ( 'NONE', *, *, #44, .T. ) ;
#48 = CARTESIAN_POINT ( 'NONE',  ( -66.78566336631769200, -1.734723475976808700E-015, 1.380506584136770100E-026 ) ) ;
#49 = FILL_AREA_STYLE ('',( #7 ) ) ;
#50 = PRESENTATION_STYLE_ASSIGNMENT (( #173 ) ) ;
#51 = ORIENTED_EDGE ( 'NONE', *, *, #59, .F. ) ;
#52 = CARTESIAN_POINT ( 'NONE',  ( -66.78566336631814700, 4.999999999999995600, 210.0000000000000000 ) ) ;
#53 = SURFACE_STYLE_USAGE ( .BOTH. , #263 ) ;
#54 = EDGE_CURVE ( 'NONE', #267, #248, #201, .T. ) ;
#55 = LINE ( 'NONE', #256, #172 ) ;
#56 = ADVANCED_FACE ( 'NONE', ( #124 ), #17, .T. ) ;
#57 = EDGE_LOOP ( 'NONE', ( #117, #80, #70, #100 ) ) ;
#58 = CARTESIAN_POINT ( 'NONE',  ( 0.7725254602971529700, 2.500116774392120000, 210.0000000000000000 ) ) ;
#59 = EDGE_CURVE ( 'NONE', #165, #168, #145, .T. ) ;
#60 = CARTESIAN_POINT ( 'NONE',  ( 3.588286626933050000, -8.675943931463690200E-016, 1.380506584136770100E-026 ) ) ;
#61 = DIRECTION ( 'NONE',  ( 0.0000000000000000000, 0.0000000000000000000, -1.000000000000000000 ) ) ;
#62 = ORIENTED_EDGE ( 'NONE', *, *, #155, .T. ) ;
#63 = EDGE_LOOP ( 'NONE', ( #94, #194, #121, #31 ) ) ;
#64 = EDGE_CURVE ( 'NONE', #73, #248, #118, .T. ) ;
#65 = CARTESIAN_POINT ( 'NONE',  ( 73.96223662018380200, -3.102068772863216600E-019, 210.0000000000000000 ) ) ;
#66 = ORIENTED_EDGE ( 'NONE', *, *, #44, .F. ) ;
#67 = DIRECTION ( 'NONE',  ( -0.0000000000000000000, -0.0000000000000000000, 1.000000000000000000 ) ) ;
#68 = AXIS2_PLACEMENT_3D ( 'NONE', #187, #167, #247 ) ;
#69 = DIRECTION ( 'NONE',  ( -1.419844590588519900E-016, 1.000000000000000000, 0.0000000000000000000 ) ) ;
#70 = ORIENTED_EDGE ( 'NONE', *, *, #59, .T. ) ;
#71 = FACE_OUTER_BOUND ( 'NONE', #134, .T. ) ;
#72 = CARTESIAN_POINT ( 'NONE',  ( 0.7725254602971529700, 2.500116774392120000, 1.380506584136770100E-026 ) ) ;
#73 = VERTEX_POINT ( 'NONE', #250 ) ;
#74 = DIRECTION ( 'NONE',  ( 0.0000000000000000000, 0.0000000000000000000, 1.000000000000000000 ) ) ;
#75 = ORIENTED_EDGE ( 'NONE', *, *, #64, .T. ) ;
#76 = VECTOR ( 'NONE', #82, 1000.000000000000000 ) ;
#77 = VECTOR ( 'NONE', #249, 1000.000000000000000 ) ;
#78 = DIRECTION ( 'NONE',  ( -1.000000000000000000, 0.0000000000000000000, 0.0000000000000000000 ) ) ;
#79 = STYLED_ITEM ( 'NONE', ( #50 ), #148 ) ;
#80 = ORIENTED_EDGE ( 'NONE', *, *, #105, .T. ) ;
#81 = CARTESIAN_POINT ( 'NONE',  ( -74.03776337981619800, 2.503672348743029900, 1.380506584136770100E-026 ) ) ;
#82 = DIRECTION ( 'NONE',  ( -1.000000000000000000, -1.232173386478380100E-017, -0.0000000000000000000 ) ) ;
#83 = FACE_OUTER_BOUND ( 'NONE', #4, .T. ) ;
#84 = VECTOR ( 'NONE', #1, 1000.000000000000000 ) ;
#85 = ADVANCED_FACE ( 'NONE', ( #260 ), #189, .T. ) ;
#86 = APPLICATION_PROTOCOL_DEFINITION ( 'draft international standard', 'automotive_design', 1998, #217 ) ;
#87 = VECTOR ( 'NONE', #236, 1000.000000000000000 ) ;
#88 = ORIENTED_EDGE ( 'NONE', *, *, #142, .F. ) ;
#89 = DIRECTION ( 'NONE',  ( 0.0000000000000000000, -1.000000000000000000, -0.0000000000000000000 ) ) ;
#90 = CARTESIAN_POINT ( 'NONE',  ( 73.96223662018380200, -4.653103159294824700E-019, 1.380506584136770100E-026 ) ) ;
#91 = ADVANCED_FACE ( 'NONE', ( #178 ), #209, .T. ) ;
#92 =( GEOMETRIC_REPRESENTATION_CONTEXT ( 3 ) GLOBAL_UNCERTAINTY_ASSIGNED_CONTEXT ( ( #101 ) ) GLOBAL_UNIT_ASSIGNED_CONTEXT ( ( #239, #111, #11 ) ) REPRESENTATION_CONTEXT ( 'NONE', 'WORKASPACE' ) );
#93 = CARTESIAN_POINT ( 'NONE',  ( -66.76160200235349900, 14.12401344232690000, 210.0000000000000000 ) ) ;
#94 = ORIENTED_EDGE ( 'NONE', *, *, #97, .T. ) ;
#95 = PRESENTATION_LAYER_ASSIGNMENT (  '', '', ( #79 ) ) ;
#96 = ORIENTED_EDGE ( 'NONE', *, *, #151, .F. ) ;
#97 = EDGE_CURVE ( 'NONE', #159, #26, #127, .T. ) ;
#98 = DIRECTION ( 'NONE',  ( 1.000000000000000000, 0.0000000000000000000, 0.0000000000000000000 ) ) ;
#99 = PLANE ( 'NONE',  #18 ) ;
#100 = ORIENTED_EDGE ( 'NONE', *, *, #218, .F. ) ;
#101 = UNCERTAINTY_MEASURE_WITH_UNIT (LENGTH_MEASURE( 1.000000000000000100E-005 ), #239, 'distance_accuracy_value', 'NONE');
#102 = CARTESIAN_POINT ( 'NONE',  ( -74.03776337981619800, 2.503672348743029900, 1.380506584136770100E-026 ) ) ;
#103 = DIRECTION ( 'NONE',  ( 0.0000000000000000000, 0.0000000000000000000, -1.000000000000000000 ) ) ;
#104 = LINE ( 'NONE', #114, #123 ) ;
#105 = EDGE_CURVE ( 'NONE', #159, #165, #34, .T. ) ;
#106 = VERTEX_POINT ( 'NONE', #126 ) ;
#107 = CARTESIAN_POINT ( 'NONE',  ( 73.96223662018380200, 5.000000000000000000, 210.0000000000000000 ) ) ;
#108 = ORIENTED_EDGE ( 'NONE', *, *, #155, .F. ) ;
#109 = ADVANCED_FACE ( 'NONE', ( #71 ), #138, .T. ) ;
#110 = FILL_AREA_STYLE ('',( #238 ) ) ;
#111 =( NAMED_UNIT ( * ) PLANE_ANGLE_UNIT ( ) SI_UNIT ( $, .RADIAN. ) );
#112 = MECHANICAL_DESIGN_GEOMETRIC_PRESENTATION_REPRESENTATION (  '', ( #79 ), #202 ) ;
#113 = ADVANCED_FACE ( 'NONE', ( #30 ), #99, .T. ) ;
#114 = CARTESIAN_POINT ( 'NONE',  ( -74.03776337981619800, 2.500116774392120000, 210.0000000000000000 ) ) ;
#115 = EDGE_CURVE ( 'NONE', #128, #159, #195, .T. ) ;
#116 = LINE ( 'NONE', #214, #76 ) ;
#117 = ORIENTED_EDGE ( 'NONE', *, *, #115, .T. ) ;
#118 = LINE ( 'NONE', #225, #25 ) ;
#119 = DIRECTION ( 'NONE',  ( -0.0000000000000000000, -0.0000000000000000000, 1.000000000000000000 ) ) ;
#120 = ORIENTED_EDGE ( 'NONE', *, *, #218, .T. ) ;
#121 = ORIENTED_EDGE ( 'NONE', *, *, #271, .F. ) ;
#122 = FACE_OUTER_BOUND ( 'NONE', #241, .T. ) ;
#123 = VECTOR ( 'NONE', #89, 1000.000000000000000 ) ;
#124 = FACE_OUTER_BOUND ( 'NONE', #204, .T. ) ;
#125 = CARTESIAN_POINT ( 'NONE',  ( 73.96223662018380200, -3.102068772863216600E-019, 1.380506584136770100E-026 ) ) ;
#126 = CARTESIAN_POINT ( 'NONE',  ( -74.03776337981618400, 2.018402748215468700, 210.0000000000000000 ) ) ;
#127 = LINE ( 'NONE', #229, #169 ) ;
#128 = VERTEX_POINT ( 'NONE', #125 ) ;
#129 = CARTESIAN_POINT ( 'NONE',  ( 3.588286626933050000, -8.675943931463690200E-016, 1.380506584136770100E-026 ) ) ;
#130 = LINE ( 'NONE', #90, #19 ) ;
#131 = PLANE ( 'NONE',  #36 ) ;
#132 =( LENGTH_UNIT ( ) NAMED_UNIT ( * ) SI_UNIT ( .MILLI., .METRE. ) );
#133 = ORIENTED_EDGE ( 'NONE', *, *, #136, .T. ) ;
#134 = EDGE_LOOP ( 'NONE', ( #47, #96, #259, #62 ) ) ;
#135 = PRODUCT_DEFINITION_FORMATION_WITH_SPECIFIED_SOURCE ( 'ANY', '', #181, .NOT_KNOWN. ) ;
#136 = EDGE_CURVE ( 'NONE', #40, #128, #244, .T. ) ;
#137 = APPLICATION_CONTEXT ( 'automotive_design' ) ;
#138 = CYLINDRICAL_SURFACE ( 'NONE', #265, 14.12403393752169300 ) ;
#139 = CARTESIAN_POINT ( 'NONE',  ( -66.78566336631814700, 4.999999999999995600, 1.380506584136770100E-026 ) ) ;
#140 = COLOUR_RGB ( '',0.7529411764705882200, 0.7529411764705882200, 0.7529411764705882200 ) ;
#141 = ORIENTED_EDGE ( 'NONE', *, *, #271, .T. ) ;
#142 = EDGE_CURVE ( 'NONE', #26, #267, #55, .T. ) ;
#143 = CARTESIAN_POINT ( 'NONE',  ( -66.78566336631890000, -9.081470464920281300, 210.0000000000000000 ) ) ;
#144 = LINE ( 'NONE', #213, #87 ) ;
#145 = LINE ( 'NONE', #163, #253 ) ;
#146 = CARTESIAN_POINT ( 'NONE',  ( 73.96223662018380200, 2.500000000000000000, 1.380506584136770100E-026 ) ) ;
#147 = EDGE_CURVE ( 'NONE', #73, #157, #268, .T. ) ;
#148 = MANIFOLD_SOLID_BREP ( 'Importiert1', #200 ) ;
#149 = CARTESIAN_POINT ( 'NONE',  ( 73.96223662018380200, 5.000000000000000000, 1.380506584136770100E-026 ) ) ;
#150 = PRODUCT_DEFINITION_CONTEXT ( 'detailed design', #137, 'design' ) ;
#151 = EDGE_CURVE ( 'NONE', #185, #40, #206, .T. ) ;
#152 = ORIENTED_EDGE ( 'NONE', *, *, #136, .F. ) ;
#153 = PLANE ( 'NONE',  #257 ) ;
#154 =( NAMED_UNIT ( * ) SI_UNIT ( $, .STERADIAN. ) SOLID_ANGLE_UNIT ( ) );
#155 = EDGE_CURVE ( 'NONE', #106, #157, #144, .T. ) ;
#156 = DIRECTION ( 'NONE',  ( -1.000000000000000000, -0.0000000000000000000, 0.0000000000000000000 ) ) ;
#157 = VERTEX_POINT ( 'NONE', #234 ) ;
#158 = VECTOR ( 'NONE', #192, 1000.000000000000000 ) ;
#159 = VERTEX_POINT ( 'NONE', #149 ) ;
#160 = AXIS2_PLACEMENT_3D ( 'NONE', #143, #207, #38 ) ;
#161 = COLOUR_RGB ( '',0.8980392156862745400, 0.8980392156862745400, 0.8980392156862745400 ) ;
#162 = EDGE_CURVE ( 'NONE', #168, #185, #116, .T. ) ;
#163 = CARTESIAN_POINT ( 'NONE',  ( 73.96223662018380200, 2.500000000000000000, 210.0000000000000000 ) ) ;
#164 = DIRECTION ( 'NONE',  ( 1.000000000000000000, 0.0000000000000000000, -0.0000000000000000000 ) ) ;
#165 = VERTEX_POINT ( 'NONE', #107 ) ;
#166 = AXIS2_PLACEMENT_3D ( 'NONE', #246, #183, #184 ) ;
#167 = DIRECTION ( 'NONE',  ( 0.0000000000000000000, 0.0000000000000000000, -1.000000000000000000 ) ) ;
#168 = VERTEX_POINT ( 'NONE', #65 ) ;
#169 = VECTOR ( 'NONE', #210, 1000.000000000000000 ) ;
#170 = DIRECTION ( 'NONE',  ( -1.000000000000000000, 0.0000000000000000000, 0.0000000000000000000 ) ) ;
#171 = ORIENTED_EDGE ( 'NONE', *, *, #190, .F. ) ;
#172 = VECTOR ( 'NONE', #5, 1000.000000000000000 ) ;
#173 = SURFACE_STYLE_USAGE ( .BOTH. , #174 ) ;
#174 = SURFACE_SIDE_STYLE ('',( #42 ) ) ;
#175 = CARTESIAN_POINT ( 'NONE',  ( 0.7725254602971529700, 5.000000000000000000, 210.0000000000000000 ) ) ;
#176 = EDGE_CURVE ( 'NONE', #248, #106, #104, .T. ) ;
#177 = DIRECTION ( 'NONE',  ( 0.0000000000000000000, 0.0000000000000000000, 1.000000000000000000 ) ) ;
#178 = FACE_OUTER_BOUND ( 'NONE', #252, .T. ) ;
#179 = CARTESIAN_POINT ( 'NONE',  ( -66.78566336629585000, -1.734871714838133100E-015, 210.0000000000000000 ) ) ;
#180 = FACE_OUTER_BOUND ( 'NONE', #63, .T. ) ;
#181 = PRODUCT ( '7910430_CNAJF00', '7910430_CNAJF00', '', ( #205 ) ) ;
#182 = APPLICATION_PROTOCOL_DEFINITION ( 'draft international standard', 'automotive_design', 1998, #137 ) ;
#183 = DIRECTION ( 'NONE',  ( -0.0000000000000000000, -0.0000000000000000000, 1.000000000000000000 ) ) ;
#184 = DIRECTION ( 'NONE',  ( -1.000000000000000000, 8.597447716107910300E-016, 0.0000000000000000000 ) ) ;
#185 = VERTEX_POINT ( 'NONE', #179 ) ;
#186 = AXIS2_PLACEMENT_3D ( 'NONE', #58, #74, #164 ) ;
#187 = CARTESIAN_POINT ( 'NONE',  ( -66.78566336631890000, -9.081470464920281300, 1.380506584136770100E-026 ) ) ;
#188 = SHAPE_DEFINITION_REPRESENTATION ( #245, #251 ) ;
#189 = PLANE ( 'NONE',  #230 ) ;
#190 = EDGE_CURVE ( 'NONE', #185, #106, #15, .T. ) ;
#191 = CARTESIAN_POINT ( 'NONE',  ( -66.76160200235349900, 14.12401344232690000, 1.380506584136770100E-026 ) ) ;
#192 = DIRECTION ( 'NONE',  ( 1.000000000000000000, 1.232173386478380100E-017, 0.0000000000000000000 ) ) ;
#193 = STYLED_ITEM ( 'NONE', ( #221 ), #251 ) ;
#194 = ORIENTED_EDGE ( 'NONE', *, *, #142, .T. ) ;
#195 = LINE ( 'NONE', #146, #77 ) ;
#196 =( LENGTH_UNIT ( ) NAMED_UNIT ( * ) SI_UNIT ( .MILLI., .METRE. ) );
#197 = ADVANCED_FACE ( 'NONE', ( #180 ), #153, .T. ) ;
#198 = CARTESIAN_POINT ( 'NONE',  ( 0.0000000000000000000, 0.0000000000000000000, 0.0000000000000000000 ) ) ;
#199 = DIRECTION ( 'NONE',  ( 0.0000000000000000000, 0.0000000000000000000, -1.000000000000000000 ) ) ;
#200 = CLOSED_SHELL ( 'NONE', ( #91, #113, #261, #109, #56, #197, #8, #85 ) ) ;
#201 = CIRCLE ( 'NONE', #160, 14.08147046492029600 ) ;
#202 =( GEOMETRIC_REPRESENTATION_CONTEXT ( 3 ) GLOBAL_UNCERTAINTY_ASSIGNED_CONTEXT ( ( #231 ) ) GLOBAL_UNIT_ASSIGNED_CONTEXT ( ( #196, #46, #212 ) ) REPRESENTATION_CONTEXT ( 'NONE', 'WORKASPACE' ) );
#203 =( NAMED_UNIT ( * ) PLANE_ANGLE_UNIT ( ) SI_UNIT ( $, .RADIAN. ) );
#204 = EDGE_LOOP ( 'NONE', ( #51, #141, #24, #215, #171, #20 ) ) ;
#205 = PRODUCT_CONTEXT ( 'NONE', #217, 'mechanical' ) ;
#206 = LINE ( 'NONE', #48, #33 ) ;
#207 = DIRECTION ( 'NONE',  ( -0.0000000000000000000, -0.0000000000000000000, 1.000000000000000000 ) ) ;
#208 = PRESENTATION_LAYER_ASSIGNMENT (  '', '', ( #193 ) ) ;
#209 = PLANE ( 'NONE',  #29 ) ;
#210 = DIRECTION ( 'NONE',  ( -1.000000000000000000, -0.0000000000000000000, 0.0000000000000000000 ) ) ;
#211 = EDGE_CURVE ( 'NONE', #26, #73, #240, .T. ) ;
#212 =( NAMED_UNIT ( * ) SI_UNIT ( $, .STERADIAN. ) SOLID_ANGLE_UNIT ( ) );
#213 = CARTESIAN_POINT ( 'NONE',  ( -74.03776337981617000, 2.018402748215459000, 1.380506584136770100E-026 ) ) ;
#214 = CARTESIAN_POINT ( 'NONE',  ( 3.588286626933050000, -8.675943931463690200E-016, 210.0000000000000000 ) ) ;
#215 = ORIENTED_EDGE ( 'NONE', *, *, #176, .T. ) ;
#216 = UNCERTAINTY_MEASURE_WITH_UNIT (LENGTH_MEASURE( 1.000000000000000100E-005 ), #132, 'distance_accuracy_value', 'NONE');
#217 = APPLICATION_CONTEXT ( 'automotive_design' ) ;
#218 = EDGE_CURVE ( 'NONE', #128, #168, #130, .T. ) ;
#219 = DIRECTION ( 'NONE',  ( -0.0000000000000000000, 0.0000000000000000000, 1.000000000000000000 ) ) ;
#220 = DIRECTION ( 'NONE',  ( -1.000000000000000000, -2.710222385266052900E-015, 0.0000000000000000000 ) ) ;
#221 = PRESENTATION_STYLE_ASSIGNMENT (( #53 ) ) ;
#222 = ORIENTED_EDGE ( 'NONE', *, *, #176, .F. ) ;
#223 = MECHANICAL_DESIGN_GEOMETRIC_PRESENTATION_REPRESENTATION (  '', ( #193 ), #235 ) ;
#224 = VECTOR ( 'NONE', #233, 1000.000000000000000 ) ;
#225 = CARTESIAN_POINT ( 'NONE',  ( -74.03776337981622600, 2.988941949270663900, 1.380506584136770100E-026 ) ) ;
#226 = AXIS2_PLACEMENT_3D ( 'NONE', #93, #199, #243 ) ;
#227 = ORIENTED_EDGE ( 'NONE', *, *, #97, .F. ) ;
#228 = CARTESIAN_POINT ( 'NONE',  ( 73.96223662018380200, 2.500000000000000000, 1.380506584136770100E-026 ) ) ;
#229 = CARTESIAN_POINT ( 'NONE',  ( 0.7725254602971529700, 5.000000000000000000, 1.380506584136770100E-026 ) ) ;
#230 = AXIS2_PLACEMENT_3D ( 'NONE', #102, #170, #272 ) ;
#231 = UNCERTAINTY_MEASURE_WITH_UNIT (LENGTH_MEASURE( 1.000000000000000100E-005 ), #196, 'distance_accuracy_value', 'NONE');
#232 = DIRECTION ( 'NONE',  ( 1.232173386478380100E-017, -1.000000000000000000, 0.0000000000000000000 ) ) ;
#233 = DIRECTION ( 'NONE',  ( -0.0000000000000000000, -1.000000000000000000, 0.0000000000000000000 ) ) ;
#234 = CARTESIAN_POINT ( 'NONE',  ( -74.03776337981618400, 2.018402748215468700, 1.380506584136770100E-026 ) ) ;
#235 =( GEOMETRIC_REPRESENTATION_CONTEXT ( 3 ) GLOBAL_UNCERTAINTY_ASSIGNED_CONTEXT ( ( #216 ) ) GLOBAL_UNIT_ASSIGNED_CONTEXT ( ( #132, #203, #154 ) ) REPRESENTATION_CONTEXT ( 'NONE', 'WORKASPACE' ) );
#236 = DIRECTION ( 'NONE',  ( 0.0000000000000000000, 0.0000000000000000000, -1.000000000000000000 ) ) ;
#237 = CYLINDRICAL_SURFACE ( 'NONE', #68, 14.08147046492029600 ) ;
#238 = FILL_AREA_STYLE_COLOUR ( '', #140 ) ;
#239 =( LENGTH_UNIT ( ) NAMED_UNIT ( * ) SI_UNIT ( .MILLI., .METRE. ) );
#240 = CIRCLE ( 'NONE', #16, 14.08147046492029600 ) ;
#241 = EDGE_LOOP ( 'NONE', ( #43, #227, #270, #152, #66, #21 ) ) ;
#242 = CARTESIAN_POINT ( 'NONE',  ( -74.03776337981621200, 2.988941949270671000, 210.0000000000000000 ) ) ;
#243 = DIRECTION ( 'NONE',  ( -1.000000000000000000, 0.0000000000000000000, 0.0000000000000000000 ) ) ;
#244 = LINE ( 'NONE', #129, #158 ) ;
#245 = PRODUCT_DEFINITION_SHAPE ( 'NONE', 'NONE',  #22 ) ;
#246 = CARTESIAN_POINT ( 'NONE',  ( -66.76160200235349900, 14.12401344232690000, 1.380506584136770100E-026 ) ) ;
#247 = DIRECTION ( 'NONE',  ( -1.000000000000000000, 0.0000000000000000000, 0.0000000000000000000 ) ) ;
#248 = VERTEX_POINT ( 'NONE', #242 ) ;
#249 = DIRECTION ( 'NONE',  ( -0.0000000000000000000, 1.000000000000000000, 0.0000000000000000000 ) ) ;
#250 = CARTESIAN_POINT ( 'NONE',  ( -74.03776337981621200, 2.988941949270671000, 1.380506584136770100E-026 ) ) ;
#251 = ADVANCED_BREP_SHAPE_REPRESENTATION ( '7910430_CNAJF00', ( #148, #6 ), #92 ) ;
#252 = EDGE_LOOP ( 'NONE', ( #133, #120, #3, #23 ) ) ;
#253 = VECTOR ( 'NONE', #41, 1000.000000000000000 ) ;
#254 = DIRECTION ( 'NONE',  ( 1.000000000000000000, 1.232173386478380100E-017, 0.0000000000000000000 ) ) ;
#255 = ORIENTED_EDGE ( 'NONE', *, *, #211, .T. ) ;
#256 = CARTESIAN_POINT ( 'NONE',  ( -66.78566336631740800, 4.999999999999989300, 1.380506584136770100E-026 ) ) ;
#257 = AXIS2_PLACEMENT_3D ( 'NONE', #32, #69, #262 ) ;
#258 = SURFACE_STYLE_FILL_AREA ( #110 ) ;
#259 = ORIENTED_EDGE ( 'NONE', *, *, #190, .T. ) ;
#260 = FACE_OUTER_BOUND ( 'NONE', #269, .T. ) ;
#261 = ADVANCED_FACE ( 'NONE', ( #122 ), #131, .F. ) ;
#262 = DIRECTION ( 'NONE',  ( -1.000000000000000000, -1.419844590588519900E-016, 0.0000000000000000000 ) ) ;
#263 = SURFACE_SIDE_STYLE ('',( #258 ) ) ;
#264 = CIRCLE ( 'NONE', #166, 14.12403393752169300 ) ;
#265 = AXIS2_PLACEMENT_3D ( 'NONE', #191, #61, #78 ) ;
#266 = DIRECTION ( 'NONE',  ( 1.000000000000000000, 0.0000000000000000000, 0.0000000000000000000 ) ) ;
#267 = VERTEX_POINT ( 'NONE', #52 ) ;
#268 = LINE ( 'NONE', #81, #224 ) ;
#269 = EDGE_LOOP ( 'NONE', ( #39, #108, #222, #14 ) ) ;
#270 = ORIENTED_EDGE ( 'NONE', *, *, #115, .F. ) ;
#271 = EDGE_CURVE ( 'NONE', #165, #267, #37, .T. ) ;
#272 = DIRECTION ( 'NONE',  ( 0.0000000000000000000, 0.0000000000000000000, 1.000000000000000000 ) ) ;
ENDSEC;
END-ISO-10303-21;
