ISO-10303-21;
HEADER;
FILE_DESCRIPTION (( 'STEP AP214' ),
    '1' );
FILE_NAME ('7310040',
    '2019-01-30T09:08:01',
    ( '' ),
    ('JUGARD+KÜNSTNER GmbH'),
    'SwSTEP 2.0',
    'SolidWorks 2017',
    '' );
FILE_SCHEMA (( 'AUTOMOTIVE_DESIGN' ));
ENDSEC;

DATA;
#1 = CIRCLE ( 'NONE', #190, 15.00000000000000000 ) ;
#2 = FACE_OUTER_BOUND ( 'NONE', #73, .T. ) ;
#3 = FACE_BOUND ( 'NONE', #127, .T. ) ;
#4 = FACE_OUTER_BOUND ( 'NONE', #130, .T. ) ;
#5 = ORIENTED_EDGE ( 'NONE', *, *, #205, .T. ) ;
#6 = COLOUR_RGB ( '',0.6470588235294118000, 0.6196078431372549200, 0.5882352941176470800 ) ;
#7 = CYLINDRICAL_SURFACE ( 'NONE', #180, 13.99999999999999800 ) ;
#8 = FACE_OUTER_BOUND ( 'NONE', #167, .T. ) ;
#9 = CYLINDRICAL_SURFACE ( 'NONE', #203, 15.00000000000000000 ) ;
#10 = FACE_OUTER_BOUND ( 'NONE', #11, .T. ) ;
#11 = EDGE_LOOP ( 'NONE', ( #91, #148 ) ) ;
#12 = ORIENTED_EDGE ( 'NONE', *, *, #210, .T. ) ;
#13 = LINE ( 'NONE', #145, #23 ) ;
#14 = CIRCLE ( 'NONE', #183, 15.00000000000000000 ) ;
#15 = VECTOR ( 'NONE', #83, 1000.000000000000000 ) ;
#16 = ORIENTED_EDGE ( 'NONE', *, *, #195, .T. ) ;
#17 = LINE ( 'NONE', #96, #15 ) ;
#18 = ORIENTED_EDGE ( 'NONE', *, *, #210, .F. ) ;
#19 = LINE ( 'NONE', #72, #157 ) ;
#20 = CIRCLE ( 'NONE', #193, 15.00000000000000000 ) ;
#21 = ORIENTED_EDGE ( 'NONE', *, *, #211, .T. ) ;
#22 = VERTEX_POINT ( 'NONE', #122 ) ;
#23 = VECTOR ( 'NONE', #128, 1000.000000000000000 ) ;
#24 = CIRCLE ( 'NONE', #177, 13.99999999999999800 ) ;
#25 = CIRCLE ( 'NONE', #178, 13.99999999999999800 ) ;
#26 = PRESENTATION_STYLE_ASSIGNMENT (( #90 ) ) ;
#27 = PRESENTATION_STYLE_ASSIGNMENT (( #38 ) ) ;
#28 = SURFACE_STYLE_FILL_AREA ( #93 ) ;
#29 = APPLICATION_PROTOCOL_DEFINITION ( 'draft international standard', 'automotive_design', 1998, #30 ) ;
#30 = APPLICATION_CONTEXT ( 'automotive_design' ) ;
#31 = PRODUCT_CONTEXT ( 'NONE', #41, 'mechanical' ) ;
#32 = DIRECTION ( 'NONE',  ( 1.000000000000000000, 0.0000000000000000000, 0.0000000000000000000 ) ) ;
#33 = DIRECTION ( 'NONE',  ( 0.0000000000000000000, 0.0000000000000000000, 1.000000000000000000 ) ) ;
#34 = ORIENTED_EDGE ( 'NONE', *, *, #209, .T. ) ;
#35 =( NAMED_UNIT ( * ) SI_UNIT ( $, .STERADIAN. ) SOLID_ANGLE_UNIT ( ) );
#36 =( NAMED_UNIT ( * ) PLANE_ANGLE_UNIT ( ) SI_UNIT ( $, .RADIAN. ) );
#37 =( LENGTH_UNIT ( ) NAMED_UNIT ( * ) SI_UNIT ( .MILLI., .METRE. ) );
#38 = SURFACE_STYLE_USAGE ( .BOTH. , #39 ) ;
#39 = SURFACE_SIDE_STYLE ('',( #119 ) ) ;
#40 = FILL_AREA_STYLE ('',( #53 ) ) ;
#41 = APPLICATION_CONTEXT ( 'automotive_design' ) ;
#42 = APPLICATION_PROTOCOL_DEFINITION ( 'draft international standard', 'automotive_design', 1998, #41 ) ;
#43 =( NAMED_UNIT ( * ) SI_UNIT ( $, .STERADIAN. ) SOLID_ANGLE_UNIT ( ) );
#44 =( NAMED_UNIT ( * ) PLANE_ANGLE_UNIT ( ) SI_UNIT ( $, .RADIAN. ) );
#45 =( LENGTH_UNIT ( ) NAMED_UNIT ( * ) SI_UNIT ( .MILLI., .METRE. ) );
#46 = DIRECTION ( 'NONE',  ( -1.000000000000000000, 0.0000000000000000000, 0.0000000000000000000 ) ) ;
#47 = DIRECTION ( 'NONE',  ( -0.0000000000000000000, -0.0000000000000000000, -1.000000000000000000 ) ) ;
#48 = CARTESIAN_POINT ( 'NONE',  ( 0.0000000000000000000, 0.0000000000000000000, -250.0000000000000000 ) ) ;
#49 = CARTESIAN_POINT ( 'NONE',  ( 0.0000000000000000000, 0.0000000000000000000, 0.0000000000000000000 ) ) ;
#50 = DIRECTION ( 'NONE',  ( -1.000000000000000000, 0.0000000000000000000, 0.0000000000000000000 ) ) ;
#51 = DIRECTION ( 'NONE',  ( -0.0000000000000000000, -0.0000000000000000000, -1.000000000000000000 ) ) ;
#52 = CARTESIAN_POINT ( 'NONE',  ( 0.0000000000000000000, 0.0000000000000000000, 250.0000000000000000 ) ) ;
#53 = FILL_AREA_STYLE_COLOUR ( '', #6 ) ;
#54 = DIRECTION ( 'NONE',  ( -1.000000000000000000, 0.0000000000000000000, 0.0000000000000000000 ) ) ;
#55 = DIRECTION ( 'NONE',  ( -0.0000000000000000000, -0.0000000000000000000, -1.000000000000000000 ) ) ;
#56 = CARTESIAN_POINT ( 'NONE',  ( 0.0000000000000000000, 0.0000000000000000000, 250.0000000000000000 ) ) ;
#57 = DIRECTION ( 'NONE',  ( -0.0000000000000000000, -0.0000000000000000000, -1.000000000000000000 ) ) ;
#58 = CARTESIAN_POINT ( 'NONE',  ( 15.00000000000000000, 1.836970198721029600E-015, 250.0000000000000000 ) ) ;
#59 = DIRECTION ( 'NONE',  ( -1.000000000000000000, 0.0000000000000000000, 0.0000000000000000000 ) ) ;
#60 = DIRECTION ( 'NONE',  ( -0.0000000000000000000, -0.0000000000000000000, -1.000000000000000000 ) ) ;
#61 = CARTESIAN_POINT ( 'NONE',  ( 0.0000000000000000000, 0.0000000000000000000, 250.0000000000000000 ) ) ;
#62 = ORIENTED_EDGE ( 'NONE', *, *, #197, .T. ) ;
#63 = DIRECTION ( 'NONE',  ( -1.000000000000000000, 0.0000000000000000000, 0.0000000000000000000 ) ) ;
#64 = DIRECTION ( 'NONE',  ( -0.0000000000000000000, -0.0000000000000000000, -1.000000000000000000 ) ) ;
#65 = CARTESIAN_POINT ( 'NONE',  ( 0.0000000000000000000, 0.0000000000000000000, 250.0000000000000000 ) ) ;
#66 = CARTESIAN_POINT ( 'NONE',  ( -15.00000000000000000, 0.0000000000000000000, -250.0000000000000000 ) ) ;
#67 = DIRECTION ( 'NONE',  ( -1.000000000000000000, 0.0000000000000000000, 0.0000000000000000000 ) ) ;
#68 = ORIENTED_EDGE ( 'NONE', *, *, #136, .T. ) ;
#69 = DIRECTION ( 'NONE',  ( 0.0000000000000000000, 0.0000000000000000000, 1.000000000000000000 ) ) ;
#70 = CARTESIAN_POINT ( 'NONE',  ( 0.0000000000000000000, 0.0000000000000000000, -250.0000000000000000 ) ) ;
#71 = DIRECTION ( 'NONE',  ( -0.0000000000000000000, -0.0000000000000000000, -1.000000000000000000 ) ) ;
#72 = CARTESIAN_POINT ( 'NONE',  ( -13.99999999999999800, 0.0000000000000000000, 250.0000000000000000 ) ) ;
#73 = EDGE_LOOP ( 'NONE', ( #126, #141, #68, #154 ) ) ;
#74 = DIRECTION ( 'NONE',  ( -1.000000000000000000, 0.0000000000000000000, 0.0000000000000000000 ) ) ;
#75 = DIRECTION ( 'NONE',  ( 0.0000000000000000000, 0.0000000000000000000, 1.000000000000000000 ) ) ;
#76 = CARTESIAN_POINT ( 'NONE',  ( 0.0000000000000000000, 0.0000000000000000000, -250.0000000000000000 ) ) ;
#77 = VERTEX_POINT ( 'NONE', #125 ) ;
#78 = DIRECTION ( 'NONE',  ( -1.000000000000000000, 0.0000000000000000000, 0.0000000000000000000 ) ) ;
#79 = DIRECTION ( 'NONE',  ( -0.0000000000000000000, -0.0000000000000000000, -1.000000000000000000 ) ) ;
#80 = ORIENTED_EDGE ( 'NONE', *, *, #208, .T. ) ;
#81 = CARTESIAN_POINT ( 'NONE',  ( 0.0000000000000000000, 0.0000000000000000000, -250.0000000000000000 ) ) ;
#82 = CYLINDRICAL_SURFACE ( 'NONE', #200, 13.99999999999999800 ) ;
#83 = DIRECTION ( 'NONE',  ( -0.0000000000000000000, -0.0000000000000000000, -1.000000000000000000 ) ) ;
#84 = CARTESIAN_POINT ( 'NONE',  ( 15.00000000000000000, 1.836970198721029600E-015, -250.0000000000000000 ) ) ;
#85 = ORIENTED_EDGE ( 'NONE', *, *, #209, .F. ) ;
#86 = ORIENTED_EDGE ( 'NONE', *, *, #201, .F. ) ;
#87 =( NAMED_UNIT ( * ) SI_UNIT ( $, .STERADIAN. ) SOLID_ANGLE_UNIT ( ) );
#88 =( NAMED_UNIT ( * ) PLANE_ANGLE_UNIT ( ) SI_UNIT ( $, .RADIAN. ) );
#89 =( LENGTH_UNIT ( ) NAMED_UNIT ( * ) SI_UNIT ( .MILLI., .METRE. ) );
#90 = SURFACE_STYLE_USAGE ( .BOTH. , #92 ) ;
#91 = ORIENTED_EDGE ( 'NONE', *, *, #196, .F. ) ;
#92 = SURFACE_SIDE_STYLE ('',( #28 ) ) ;
#93 = FILL_AREA_STYLE ('',( #95 ) ) ;
#94 = VERTEX_POINT ( 'NONE', #143 ) ;
#95 = FILL_AREA_STYLE_COLOUR ( '', #138 ) ;
#96 = CARTESIAN_POINT ( 'NONE',  ( 13.99999999999999800, 1.714505518806294400E-015, 250.0000000000000000 ) ) ;
#97 = DIRECTION ( 'NONE',  ( -0.0000000000000000000, -0.0000000000000000000, -1.000000000000000000 ) ) ;
#98 = CARTESIAN_POINT ( 'NONE',  ( 0.0000000000000000000, 0.0000000000000000000, 250.0000000000000000 ) ) ;
#99 = DIRECTION ( 'NONE',  ( -1.000000000000000000, 0.0000000000000000000, 0.0000000000000000000 ) ) ;
#100 = DIRECTION ( 'NONE',  ( -0.0000000000000000000, -0.0000000000000000000, -1.000000000000000000 ) ) ;
#101 = CARTESIAN_POINT ( 'NONE',  ( 0.0000000000000000000, 0.0000000000000000000, 250.0000000000000000 ) ) ;
#102 = DIRECTION ( 'NONE',  ( -1.000000000000000000, 0.0000000000000000000, 0.0000000000000000000 ) ) ;
#103 = DIRECTION ( 'NONE',  ( -0.0000000000000000000, -0.0000000000000000000, -1.000000000000000000 ) ) ;
#104 = CYLINDRICAL_SURFACE ( 'NONE', #181, 15.00000000000000000 ) ;
#105 = CARTESIAN_POINT ( 'NONE',  ( 0.0000000000000000000, 0.0000000000000000000, 250.0000000000000000 ) ) ;
#106 = DIRECTION ( 'NONE',  ( -1.000000000000000000, 0.0000000000000000000, 0.0000000000000000000 ) ) ;
#107 = CIRCLE ( 'NONE', #192, 13.99999999999999800 ) ;
#108 = CARTESIAN_POINT ( 'NONE',  ( 0.0000000000000000000, 0.0000000000000000000, 250.0000000000000000 ) ) ;
#109 = DIRECTION ( 'NONE',  ( 1.000000000000000000, 0.0000000000000000000, -0.0000000000000000000 ) ) ;
#110 = DIRECTION ( 'NONE',  ( -1.000000000000000000, 0.0000000000000000000, 0.0000000000000000000 ) ) ;
#111 = PLANE ( 'NONE',  #185 ) ;
#112 = DIRECTION ( 'NONE',  ( -0.0000000000000000000, -0.0000000000000000000, -1.000000000000000000 ) ) ;
#113 = CARTESIAN_POINT ( 'NONE',  ( 0.0000000000000000000, 0.0000000000000000000, -250.0000000000000000 ) ) ;
#114 = DIRECTION ( 'NONE',  ( 1.000000000000000000, 0.0000000000000000000, -0.0000000000000000000 ) ) ;
#115 = DIRECTION ( 'NONE',  ( 0.0000000000000000000, 0.0000000000000000000, 1.000000000000000000 ) ) ;
#116 = DIRECTION ( 'NONE',  ( 0.0000000000000000000, 0.0000000000000000000, 1.000000000000000000 ) ) ;
#117 = CARTESIAN_POINT ( 'NONE',  ( 13.99999999999999800, 1.714505518806294400E-015, -250.0000000000000000 ) ) ;
#118 = CARTESIAN_POINT ( 'NONE',  ( 0.0000000000000000000, 0.0000000000000000000, 250.0000000000000000 ) ) ;
#119 = SURFACE_STYLE_FILL_AREA ( #40 ) ;
#120 = PLANE ( 'NONE',  #206 ) ;
#121 = VERTEX_POINT ( 'NONE', #137 ) ;
#122 = CARTESIAN_POINT ( 'NONE',  ( -15.00000000000000000, 0.0000000000000000000, 250.0000000000000000 ) ) ;
#123 = CIRCLE ( 'NONE', #202, 13.99999999999999800 ) ;
#124 = VERTEX_POINT ( 'NONE', #212 ) ;
#125 = CARTESIAN_POINT ( 'NONE',  ( 13.99999999999999800, 1.714505518806294400E-015, 250.0000000000000000 ) ) ;
#126 = ORIENTED_EDGE ( 'NONE', *, *, #211, .F. ) ;
#127 = EDGE_LOOP ( 'NONE', ( #139, #214 ) ) ;
#128 = DIRECTION ( 'NONE',  ( -0.0000000000000000000, -0.0000000000000000000, -1.000000000000000000 ) ) ;
#129 = EDGE_LOOP ( 'NONE', ( #12, #21, #151, #150 ) ) ;
#130 = EDGE_LOOP ( 'NONE', ( #133, #62, #146, #134 ) ) ;
#131 = EDGE_LOOP ( 'NONE', ( #18, #86 ) ) ;
#132 = PRODUCT ( '7310040', '7310040', '', ( #31 ) ) ;
#133 = ORIENTED_EDGE ( 'NONE', *, *, #208, .F. ) ;
#134 = ORIENTED_EDGE ( 'NONE', *, *, #205, .F. ) ;
#135 = FACE_OUTER_BOUND ( 'NONE', #129, .T. ) ;
#136 = EDGE_CURVE ( 'NONE', #22, #207, #13, .T. ) ;
#137 = CARTESIAN_POINT ( 'NONE',  ( 15.00000000000000000, 1.836970198721029600E-015, 250.0000000000000000 ) ) ;
#138 = COLOUR_RGB ( '',0.6470588235294118000, 0.6196078431372549200, 0.5882352941176470800 ) ;
#139 = ORIENTED_EDGE ( 'NONE', *, *, #195, .F. ) ;
#140 = LINE ( 'NONE', #58, #142 ) ;
#141 = ORIENTED_EDGE ( 'NONE', *, *, #201, .T. ) ;
#142 = VECTOR ( 'NONE', #57, 1000.000000000000000 ) ;
#143 = CARTESIAN_POINT ( 'NONE',  ( -13.99999999999999800, 0.0000000000000000000, 250.0000000000000000 ) ) ;
#144 = FACE_BOUND ( 'NONE', #156, .T. ) ;
#145 = CARTESIAN_POINT ( 'NONE',  ( -15.00000000000000000, 0.0000000000000000000, 250.0000000000000000 ) ) ;
#146 = ORIENTED_EDGE ( 'NONE', *, *, #213, .T. ) ;
#147 = PRODUCT_DEFINITION_CONTEXT ( 'detailed design', #30, 'design' ) ;
#148 = ORIENTED_EDGE ( 'NONE', *, *, #198, .F. ) ;
#149 = FACE_OUTER_BOUND ( 'NONE', #131, .T. ) ;
#150 = ORIENTED_EDGE ( 'NONE', *, *, #136, .F. ) ;
#151 = ORIENTED_EDGE ( 'NONE', *, *, #198, .T. ) ;
#152 = VERTEX_POINT ( 'NONE', #117 ) ;
#153 = ORIENTED_EDGE ( 'NONE', *, *, #197, .F. ) ;
#154 = ORIENTED_EDGE ( 'NONE', *, *, #196, .T. ) ;
#155 = SHAPE_DEFINITION_REPRESENTATION ( #162, #173 ) ;
#156 = EDGE_LOOP ( 'NONE', ( #34, #80 ) ) ;
#157 = VECTOR ( 'NONE', #71, 1000.000000000000000 ) ;
#158 = ADVANCED_FACE ( 'NONE', ( #144, #149 ), #120, .T. ) ;
#159 = ADVANCED_FACE ( 'NONE', ( #3, #10 ), #111, .F. ) ;
#160 = ADVANCED_FACE ( 'NONE', ( #2 ), #9, .T. ) ;
#161 = ADVANCED_FACE ( 'NONE', ( #4 ), #7, .F. ) ;
#162 = PRODUCT_DEFINITION_SHAPE ( 'NONE', 'NONE',  #170 ) ;
#163 = ADVANCED_FACE ( 'NONE', ( #135 ), #104, .T. ) ;
#164 = ADVANCED_FACE ( 'NONE', ( #8 ), #82, .F. ) ;
#165 = UNCERTAINTY_MEASURE_WITH_UNIT (LENGTH_MEASURE( 1.000000000000000100E-005 ), #89, 'distance_accuracy_value', 'NONE');
#166 = PRODUCT_RELATED_PRODUCT_CATEGORY ( 'part', '', ( #132 ) ) ;
#167 = EDGE_LOOP ( 'NONE', ( #153, #85, #5, #16 ) ) ;
#168 = MECHANICAL_DESIGN_GEOMETRIC_PRESENTATION_REPRESENTATION (  '', ( #179 ), #182 ) ;
#169 = MANIFOLD_SOLID_BREP ( 'SolidBody1', #194 ) ;
#170 = PRODUCT_DEFINITION ( 'UNKNOWN', '', #184, #147 ) ;
#171 = UNCERTAINTY_MEASURE_WITH_UNIT (LENGTH_MEASURE( 1.000000000000000100E-005 ), #45, 'distance_accuracy_value', 'NONE');
#172 = AXIS2_PLACEMENT_3D ( 'NONE', #49, #33, #32 ) ;
#173 = ADVANCED_BREP_SHAPE_REPRESENTATION ( '7310040', ( #169, #172 ), #176 ) ;
#174 = UNCERTAINTY_MEASURE_WITH_UNIT (LENGTH_MEASURE( 1.000000000000000100E-005 ), #37, 'distance_accuracy_value', 'NONE');
#175 = PRESENTATION_LAYER_ASSIGNMENT (  '', '', ( #179 ) ) ;
#176 =( GEOMETRIC_REPRESENTATION_CONTEXT ( 3 ) GLOBAL_UNCERTAINTY_ASSIGNED_CONTEXT ( ( #171 ) ) GLOBAL_UNIT_ASSIGNED_CONTEXT ( ( #45, #44, #43 ) ) REPRESENTATION_CONTEXT ( 'NONE', 'WORKASPACE' ) );
#177 = AXIS2_PLACEMENT_3D ( 'NONE', #61, #60, #59 ) ;
#178 = AXIS2_PLACEMENT_3D ( 'NONE', #56, #55, #54 ) ;
#179 = STYLED_ITEM ( 'NONE', ( #27 ), #173 ) ;
#180 = AXIS2_PLACEMENT_3D ( 'NONE', #105, #103, #106 ) ;
#181 = AXIS2_PLACEMENT_3D ( 'NONE', #101, #100, #102 ) ;
#182 =( GEOMETRIC_REPRESENTATION_CONTEXT ( 3 ) GLOBAL_UNCERTAINTY_ASSIGNED_CONTEXT ( ( #174 ) ) GLOBAL_UNIT_ASSIGNED_CONTEXT ( ( #37, #36, #35 ) ) REPRESENTATION_CONTEXT ( 'NONE', 'WORKASPACE' ) );
#183 = AXIS2_PLACEMENT_3D ( 'NONE', #65, #64, #63 ) ;
#184 = PRODUCT_DEFINITION_FORMATION_WITH_SPECIFIED_SOURCE ( 'ANY', '', #132, .NOT_KNOWN. ) ;
#185 = AXIS2_PLACEMENT_3D ( 'NONE', #113, #116, #109 ) ;
#186 = PRESENTATION_LAYER_ASSIGNMENT (  '', '', ( #199 ) ) ;
#187 = MECHANICAL_DESIGN_GEOMETRIC_PRESENTATION_REPRESENTATION (  '', ( #199 ), #189 ) ;
#188 = VERTEX_POINT ( 'NONE', #84 ) ;
#189 =( GEOMETRIC_REPRESENTATION_CONTEXT ( 3 ) GLOBAL_UNCERTAINTY_ASSIGNED_CONTEXT ( ( #165 ) ) GLOBAL_UNIT_ASSIGNED_CONTEXT ( ( #89, #88, #87 ) ) REPRESENTATION_CONTEXT ( 'NONE', 'WORKASPACE' ) );
#190 = AXIS2_PLACEMENT_3D ( 'NONE', #76, #75, #74 ) ;
#191 = CIRCLE ( 'NONE', #204, 15.00000000000000000 ) ;
#192 = AXIS2_PLACEMENT_3D ( 'NONE', #48, #47, #46 ) ;
#193 = AXIS2_PLACEMENT_3D ( 'NONE', #70, #69, #67 ) ;
#194 = CLOSED_SHELL ( 'NONE', ( #163, #161, #160, #159, #158, #164 ) ) ;
#195 = EDGE_CURVE ( 'NONE', #124, #152, #123, .T. ) ;
#196 = EDGE_CURVE ( 'NONE', #207, #188, #1, .T. ) ;
#197 = EDGE_CURVE ( 'NONE', #77, #152, #17, .T. ) ;
#198 = EDGE_CURVE ( 'NONE', #188, #207, #20, .T. ) ;
#199 = STYLED_ITEM ( 'NONE', ( #26 ), #169 ) ;
#200 = AXIS2_PLACEMENT_3D ( 'NONE', #98, #97, #99 ) ;
#201 = EDGE_CURVE ( 'NONE', #121, #22, #14, .T. ) ;
#202 = AXIS2_PLACEMENT_3D ( 'NONE', #81, #79, #78 ) ;
#203 = AXIS2_PLACEMENT_3D ( 'NONE', #108, #112, #110 ) ;
#204 = AXIS2_PLACEMENT_3D ( 'NONE', #52, #51, #50 ) ;
#205 = EDGE_CURVE ( 'NONE', #94, #124, #19, .T. ) ;
#206 = AXIS2_PLACEMENT_3D ( 'NONE', #118, #115, #114 ) ;
#207 = VERTEX_POINT ( 'NONE', #66 ) ;
#208 = EDGE_CURVE ( 'NONE', #77, #94, #24, .T. ) ;
#209 = EDGE_CURVE ( 'NONE', #94, #77, #25, .T. ) ;
#210 = EDGE_CURVE ( 'NONE', #22, #121, #191, .T. ) ;
#211 = EDGE_CURVE ( 'NONE', #121, #188, #140, .T. ) ;
#212 = CARTESIAN_POINT ( 'NONE',  ( -13.99999999999999800, 0.0000000000000000000, -250.0000000000000000 ) ) ;
#213 = EDGE_CURVE ( 'NONE', #152, #124, #107, .T. ) ;
#214 = ORIENTED_EDGE ( 'NONE', *, *, #213, .F. ) ;
ENDSEC;
END-ISO-10303-21;
