ISO-10303-21;
HEADER;
FILE_DESCRIPTION (( 'STEP AP214' ),
    '1' );
FILE_NAME ('7310038',
    '2019-01-30T09:07:44',
    ( '' ),
    ('JUGARD+KÜNSTNER GmbH'),
    'SwSTEP 2.0',
    'SolidWorks 2017',
    '' );
FILE_SCHEMA (( 'AUTOMOTIVE_DESIGN' ));
ENDSEC;

DATA;
#1 = DIRECTION ( 'NONE',  ( -0.0000000000000000000, -0.0000000000000000000, -1.000000000000000000 ) ) ;
#2 = DIRECTION ( 'NONE',  ( -0.0000000000000000000, -0.0000000000000000000, -1.000000000000000000 ) ) ;
#3 = CARTESIAN_POINT ( 'NONE',  ( 0.0000000000000000000, 0.0000000000000000000, 0.0000000000000000000 ) ) ;
#4 = DIRECTION ( 'NONE',  ( -1.000000000000000000, 0.0000000000000000000, 0.0000000000000000000 ) ) ;
#5 =( NAMED_UNIT ( * ) SI_UNIT ( $, .STERADIAN. ) SOLID_ANGLE_UNIT ( ) );
#6 = DIRECTION ( 'NONE',  ( 0.0000000000000000000, 0.0000000000000000000, 1.000000000000000000 ) ) ;
#7 = DIRECTION ( 'NONE',  ( -1.000000000000000000, 0.0000000000000000000, 0.0000000000000000000 ) ) ;
#8 = APPLICATION_PROTOCOL_DEFINITION ( 'draft international standard', 'automotive_design', 1998, #109 ) ;
#9 = DIRECTION ( 'NONE',  ( -1.000000000000000000, 0.0000000000000000000, 0.0000000000000000000 ) ) ;
#10 = CARTESIAN_POINT ( 'NONE',  ( 0.0000000000000000000, 0.0000000000000000000, -150.0000000000000000 ) ) ;
#11 = DIRECTION ( 'NONE',  ( -1.000000000000000000, 0.0000000000000000000, 0.0000000000000000000 ) ) ;
#12 = DIRECTION ( 'NONE',  ( 0.0000000000000000000, 0.0000000000000000000, 1.000000000000000000 ) ) ;
#13 = DIRECTION ( 'NONE',  ( -0.0000000000000000000, -0.0000000000000000000, -1.000000000000000000 ) ) ;
#14 = DIRECTION ( 'NONE',  ( -0.0000000000000000000, -0.0000000000000000000, -1.000000000000000000 ) ) ;
#15 = CARTESIAN_POINT ( 'NONE',  ( -13.99999999999999800, 0.0000000000000000000, -150.0000000000000000 ) ) ;
#16 = CARTESIAN_POINT ( 'NONE',  ( 13.99999999999999800, 1.714505518806294400E-015, 150.0000000000000000 ) ) ;
#17 = EDGE_LOOP ( 'NONE', ( #71, #143 ) ) ;
#18 = DIRECTION ( 'NONE',  ( -1.000000000000000000, 0.0000000000000000000, 0.0000000000000000000 ) ) ;
#19 = DIRECTION ( 'NONE',  ( -0.0000000000000000000, -0.0000000000000000000, -1.000000000000000000 ) ) ;
#20 = CARTESIAN_POINT ( 'NONE',  ( 0.0000000000000000000, 0.0000000000000000000, 150.0000000000000000 ) ) ;
#21 = FACE_OUTER_BOUND ( 'NONE', #172, .T. ) ;
#22 = CARTESIAN_POINT ( 'NONE',  ( 15.00000000000000000, 1.836970198721029600E-015, 150.0000000000000000 ) ) ;
#23 = DIRECTION ( 'NONE',  ( -1.000000000000000000, 0.0000000000000000000, 0.0000000000000000000 ) ) ;
#24 = DIRECTION ( 'NONE',  ( -1.000000000000000000, 0.0000000000000000000, 0.0000000000000000000 ) ) ;
#25 = DIRECTION ( 'NONE',  ( -0.0000000000000000000, -0.0000000000000000000, -1.000000000000000000 ) ) ;
#26 = CARTESIAN_POINT ( 'NONE',  ( 0.0000000000000000000, 0.0000000000000000000, 150.0000000000000000 ) ) ;
#27 = DIRECTION ( 'NONE',  ( -0.0000000000000000000, -0.0000000000000000000, -1.000000000000000000 ) ) ;
#28 = CARTESIAN_POINT ( 'NONE',  ( -15.00000000000000000, 0.0000000000000000000, 150.0000000000000000 ) ) ;
#29 = DIRECTION ( 'NONE',  ( -1.000000000000000000, 0.0000000000000000000, 0.0000000000000000000 ) ) ;
#30 = DIRECTION ( 'NONE',  ( -0.0000000000000000000, -0.0000000000000000000, -1.000000000000000000 ) ) ;
#31 = VERTEX_POINT ( 'NONE', #72 ) ;
#32 = CARTESIAN_POINT ( 'NONE',  ( 0.0000000000000000000, 0.0000000000000000000, 150.0000000000000000 ) ) ;
#33 = CARTESIAN_POINT ( 'NONE',  ( 0.0000000000000000000, 0.0000000000000000000, 150.0000000000000000 ) ) ;
#34 = DIRECTION ( 'NONE',  ( -0.0000000000000000000, -0.0000000000000000000, -1.000000000000000000 ) ) ;
#35 = CARTESIAN_POINT ( 'NONE',  ( -15.00000000000000000, 0.0000000000000000000, 150.0000000000000000 ) ) ;
#36 = DIRECTION ( 'NONE',  ( -1.000000000000000000, 0.0000000000000000000, 0.0000000000000000000 ) ) ;
#37 = DIRECTION ( 'NONE',  ( -0.0000000000000000000, -0.0000000000000000000, -1.000000000000000000 ) ) ;
#38 = CARTESIAN_POINT ( 'NONE',  ( 0.0000000000000000000, 0.0000000000000000000, -150.0000000000000000 ) ) ;
#39 = CARTESIAN_POINT ( 'NONE',  ( -15.00000000000000000, 0.0000000000000000000, -150.0000000000000000 ) ) ;
#40 = CARTESIAN_POINT ( 'NONE',  ( -13.99999999999999800, 0.0000000000000000000, 150.0000000000000000 ) ) ;
#41 = FILL_AREA_STYLE_COLOUR ( '', #162 ) ;
#42 = VERTEX_POINT ( 'NONE', #70 ) ;
#43 = ORIENTED_EDGE ( 'NONE', *, *, #131, .T. ) ;
#44 = CARTESIAN_POINT ( 'NONE',  ( 0.0000000000000000000, 0.0000000000000000000, 150.0000000000000000 ) ) ;
#45 = ORIENTED_EDGE ( 'NONE', *, *, #181, .T. ) ;
#46 = DIRECTION ( 'NONE',  ( -1.000000000000000000, 0.0000000000000000000, 0.0000000000000000000 ) ) ;
#47 = DIRECTION ( 'NONE',  ( -0.0000000000000000000, -0.0000000000000000000, -1.000000000000000000 ) ) ;
#48 = EDGE_LOOP ( 'NONE', ( #79, #112 ) ) ;
#49 = CARTESIAN_POINT ( 'NONE',  ( 0.0000000000000000000, 0.0000000000000000000, 150.0000000000000000 ) ) ;
#50 = DIRECTION ( 'NONE',  ( 1.000000000000000000, 0.0000000000000000000, -0.0000000000000000000 ) ) ;
#51 = DIRECTION ( 'NONE',  ( -1.000000000000000000, 0.0000000000000000000, 0.0000000000000000000 ) ) ;
#52 = PLANE ( 'NONE',  #194 ) ;
#53 = DIRECTION ( 'NONE',  ( -0.0000000000000000000, -0.0000000000000000000, -1.000000000000000000 ) ) ;
#54 = DIRECTION ( 'NONE',  ( 1.000000000000000000, 0.0000000000000000000, -0.0000000000000000000 ) ) ;
#55 = CARTESIAN_POINT ( 'NONE',  ( 13.99999999999999800, 1.714505518806294400E-015, 150.0000000000000000 ) ) ;
#56 = PLANE ( 'NONE',  #111 ) ;
#57 = CARTESIAN_POINT ( 'NONE',  ( 0.0000000000000000000, 0.0000000000000000000, 150.0000000000000000 ) ) ;
#58 = CARTESIAN_POINT ( 'NONE',  ( 0.0000000000000000000, 0.0000000000000000000, -150.0000000000000000 ) ) ;
#59 = DIRECTION ( 'NONE',  ( -0.0000000000000000000, -0.0000000000000000000, -1.000000000000000000 ) ) ;
#60 = DIRECTION ( 'NONE',  ( 0.0000000000000000000, 0.0000000000000000000, 1.000000000000000000 ) ) ;
#61 = PRODUCT_DEFINITION_SHAPE ( 'NONE', 'NONE',  #106 ) ;
#62 = VERTEX_POINT ( 'NONE', #86 ) ;
#63 =( NAMED_UNIT ( * ) SI_UNIT ( $, .STERADIAN. ) SOLID_ANGLE_UNIT ( ) );
#64 =( NAMED_UNIT ( * ) PLANE_ANGLE_UNIT ( ) SI_UNIT ( $, .RADIAN. ) );
#65 =( LENGTH_UNIT ( ) NAMED_UNIT ( * ) SI_UNIT ( .MILLI., .METRE. ) );
#66 = SURFACE_STYLE_USAGE ( .BOTH. , #94 ) ;
#67 = DIRECTION ( 'NONE',  ( 0.0000000000000000000, 0.0000000000000000000, 1.000000000000000000 ) ) ;
#68 = PRESENTATION_STYLE_ASSIGNMENT (( #140 ) ) ;
#69 = DIRECTION ( 'NONE',  ( 1.000000000000000000, 0.0000000000000000000, 0.0000000000000000000 ) ) ;
#70 = CARTESIAN_POINT ( 'NONE',  ( 13.99999999999999800, 1.714505518806294400E-015, -150.0000000000000000 ) ) ;
#71 = ORIENTED_EDGE ( 'NONE', *, *, #188, .F. ) ;
#72 = CARTESIAN_POINT ( 'NONE',  ( 15.00000000000000000, 1.836970198721029600E-015, 150.0000000000000000 ) ) ;
#73 = DIRECTION ( 'NONE',  ( -1.000000000000000000, 0.0000000000000000000, 0.0000000000000000000 ) ) ;
#74 = CARTESIAN_POINT ( 'NONE',  ( 0.0000000000000000000, 0.0000000000000000000, 150.0000000000000000 ) ) ;
#75 = FILL_AREA_STYLE_COLOUR ( '', #85 ) ;
#76 = CARTESIAN_POINT ( 'NONE',  ( 15.00000000000000000, 1.836970198721029600E-015, -150.0000000000000000 ) ) ;
#77 = FILL_AREA_STYLE ('',( #75 ) ) ;
#78 = UNCERTAINTY_MEASURE_WITH_UNIT (LENGTH_MEASURE( 1.000000000000000100E-005 ), #151, 'distance_accuracy_value', 'NONE');
#79 = ORIENTED_EDGE ( 'NONE', *, *, #182, .F. ) ;
#80 = PRODUCT_CONTEXT ( 'NONE', #136, 'mechanical' ) ;
#81 = PRESENTATION_STYLE_ASSIGNMENT (( #66 ) ) ;
#82 = APPLICATION_PROTOCOL_DEFINITION ( 'draft international standard', 'automotive_design', 1998, #136 ) ;
#83 = CLOSED_SHELL ( 'NONE', ( #122, #124, #126, #127, #123, #125 ) ) ;
#84 = CYLINDRICAL_SURFACE ( 'NONE', #108, 13.99999999999999800 ) ;
#85 = COLOUR_RGB ( '',0.6470588235294118000, 0.6196078431372549200, 0.5882352941176470800 ) ;
#86 = CARTESIAN_POINT ( 'NONE',  ( -13.99999999999999800, 0.0000000000000000000, 150.0000000000000000 ) ) ;
#87 =( GEOMETRIC_REPRESENTATION_CONTEXT ( 3 ) GLOBAL_UNCERTAINTY_ASSIGNED_CONTEXT ( ( #117 ) ) GLOBAL_UNIT_ASSIGNED_CONTEXT ( ( #135, #132, #134 ) ) REPRESENTATION_CONTEXT ( 'NONE', 'WORKASPACE' ) );
#88 = ORIENTED_EDGE ( 'NONE', *, *, #193, .T. ) ;
#89 = AXIS2_PLACEMENT_3D ( 'NONE', #49, #53, #51 ) ;
#90 = ORIENTED_EDGE ( 'NONE', *, *, #185, .F. ) ;
#91 = STYLED_ITEM ( 'NONE', ( #68 ), #144 ) ;
#92 = VERTEX_POINT ( 'NONE', #76 ) ;
#93 = AXIS2_PLACEMENT_3D ( 'NONE', #3, #104, #69 ) ;
#94 = SURFACE_SIDE_STYLE ('',( #169 ) ) ;
#95 = CYLINDRICAL_SURFACE ( 'NONE', #196, 15.00000000000000000 ) ;
#96 = AXIS2_PLACEMENT_3D ( 'NONE', #113, #12, #23 ) ;
#97 = MECHANICAL_DESIGN_GEOMETRIC_PRESENTATION_REPRESENTATION (  '', ( #91 ), #146 ) ;
#98 = CIRCLE ( 'NONE', #163, 15.00000000000000000 ) ;
#99 = UNCERTAINTY_MEASURE_WITH_UNIT (LENGTH_MEASURE( 1.000000000000000100E-005 ), #65, 'distance_accuracy_value', 'NONE');
#100 = DIRECTION ( 'NONE',  ( -0.0000000000000000000, -0.0000000000000000000, -1.000000000000000000 ) ) ;
#101 = MANIFOLD_SOLID_BREP ( 'SolidBody1', #83 ) ;
#102 = FACE_BOUND ( 'NONE', #168, .T. ) ;
#103 = EDGE_LOOP ( 'NONE', ( #199, #198, #118, #90 ) ) ;
#104 = DIRECTION ( 'NONE',  ( 0.0000000000000000000, 0.0000000000000000000, 1.000000000000000000 ) ) ;
#105 = PRESENTATION_LAYER_ASSIGNMENT (  '', '', ( #91 ) ) ;
#106 = PRODUCT_DEFINITION ( 'UNKNOWN', '', #154, #166 ) ;
#107 = FACE_OUTER_BOUND ( 'NONE', #212, .T. ) ;
#108 = AXIS2_PLACEMENT_3D ( 'NONE', #44, #13, #46 ) ;
#109 = APPLICATION_CONTEXT ( 'automotive_design' ) ;
#110 = AXIS2_PLACEMENT_3D ( 'NONE', #211, #1, #7 ) ;
#111 = AXIS2_PLACEMENT_3D ( 'NONE', #58, #67, #54 ) ;
#112 = ORIENTED_EDGE ( 'NONE', *, *, #193, .F. ) ;
#113 = CARTESIAN_POINT ( 'NONE',  ( 0.0000000000000000000, 0.0000000000000000000, -150.0000000000000000 ) ) ;
#114 = CARTESIAN_POINT ( 'NONE',  ( 0.0000000000000000000, 0.0000000000000000000, 150.0000000000000000 ) ) ;
#115 = AXIS2_PLACEMENT_3D ( 'NONE', #32, #30, #29 ) ;
#116 = AXIS2_PLACEMENT_3D ( 'NONE', #74, #59, #73 ) ;
#117 = UNCERTAINTY_MEASURE_WITH_UNIT (LENGTH_MEASURE( 1.000000000000000100E-005 ), #135, 'distance_accuracy_value', 'NONE');
#118 = ORIENTED_EDGE ( 'NONE', *, *, #197, .T. ) ;
#119 = AXIS2_PLACEMENT_3D ( 'NONE', #10, #6, #4 ) ;
#120 = EDGE_LOOP ( 'NONE', ( #129, #128 ) ) ;
#121 = VECTOR ( 'NONE', #34, 1000.000000000000000 ) ;
#122 = ADVANCED_FACE ( 'NONE', ( #176 ), #207, .T. ) ;
#123 = ADVANCED_FACE ( 'NONE', ( #102, #158 ), #52, .T. ) ;
#124 = ADVANCED_FACE ( 'NONE', ( #21 ), #183, .F. ) ;
#125 = ADVANCED_FACE ( 'NONE', ( #107 ), #84, .F. ) ;
#126 = ADVANCED_FACE ( 'NONE', ( #177 ), #95, .T. ) ;
#127 = ADVANCED_FACE ( 'NONE', ( #200, #161 ), #56, .F. ) ;
#128 = ORIENTED_EDGE ( 'NONE', *, *, #203, .F. ) ;
#129 = ORIENTED_EDGE ( 'NONE', *, *, #131, .F. ) ;
#130 = ORIENTED_EDGE ( 'NONE', *, *, #186, .T. ) ;
#131 = EDGE_CURVE ( 'NONE', #192, #42, #149, .T. ) ;
#132 =( NAMED_UNIT ( * ) PLANE_ANGLE_UNIT ( ) SI_UNIT ( $, .RADIAN. ) );
#133 = EDGE_LOOP ( 'NONE', ( #210, #88, #209, #145 ) ) ;
#134 =( NAMED_UNIT ( * ) SI_UNIT ( $, .STERADIAN. ) SOLID_ANGLE_UNIT ( ) );
#135 =( LENGTH_UNIT ( ) NAMED_UNIT ( * ) SI_UNIT ( .MILLI., .METRE. ) );
#136 = APPLICATION_CONTEXT ( 'automotive_design' ) ;
#137 = PRODUCT_RELATED_PRODUCT_CATEGORY ( 'part', '', ( #167 ) ) ;
#138 = FILL_AREA_STYLE ('',( #41 ) ) ;
#139 = SURFACE_SIDE_STYLE ('',( #165 ) ) ;
#140 = SURFACE_STYLE_USAGE ( .BOTH. , #139 ) ;
#141 = AXIS2_PLACEMENT_3D ( 'NONE', #20, #19, #18 ) ;
#142 = CIRCLE ( 'NONE', #213, 15.00000000000000000 ) ;
#143 = ORIENTED_EDGE ( 'NONE', *, *, #197, .F. ) ;
#144 = ADVANCED_BREP_SHAPE_REPRESENTATION ( '7310038', ( #101, #93 ), #87 ) ;
#145 = ORIENTED_EDGE ( 'NONE', *, *, #188, .T. ) ;
#146 =( GEOMETRIC_REPRESENTATION_CONTEXT ( 3 ) GLOBAL_UNCERTAINTY_ASSIGNED_CONTEXT ( ( #78 ) ) GLOBAL_UNIT_ASSIGNED_CONTEXT ( ( #151, #152, #5 ) ) REPRESENTATION_CONTEXT ( 'NONE', 'WORKASPACE' ) );
#147 = VECTOR ( 'NONE', #27, 1000.000000000000000 ) ;
#148 = LINE ( 'NONE', #28, #147 ) ;
#149 = CIRCLE ( 'NONE', #205, 13.99999999999999800 ) ;
#150 = LINE ( 'NONE', #22, #121 ) ;
#151 =( LENGTH_UNIT ( ) NAMED_UNIT ( * ) SI_UNIT ( .MILLI., .METRE. ) );
#152 =( NAMED_UNIT ( * ) PLANE_ANGLE_UNIT ( ) SI_UNIT ( $, .RADIAN. ) );
#153 = ORIENTED_EDGE ( 'NONE', *, *, #186, .F. ) ;
#154 = PRODUCT_DEFINITION_FORMATION_WITH_SPECIFIED_SOURCE ( 'ANY', '', #167, .NOT_KNOWN. ) ;
#155 = VECTOR ( 'NONE', #14, 1000.000000000000000 ) ;
#156 = SHAPE_DEFINITION_REPRESENTATION ( #61, #144 ) ;
#157 = VERTEX_POINT ( 'NONE', #39 ) ;
#158 = FACE_OUTER_BOUND ( 'NONE', #48, .T. ) ;
#159 = CIRCLE ( 'NONE', #96, 15.00000000000000000 ) ;
#160 = VERTEX_POINT ( 'NONE', #55 ) ;
#161 = FACE_OUTER_BOUND ( 'NONE', #17, .T. ) ;
#162 = COLOUR_RGB ( '',0.6470588235294118000, 0.6196078431372549200, 0.5882352941176470800 ) ;
#164 = CIRCLE ( 'NONE', #115, 13.99999999999999800 ) ;
#163 = AXIS2_PLACEMENT_3D ( 'NONE', #26, #25, #24 ) ;
#165 = SURFACE_STYLE_FILL_AREA ( #138 ) ;
#166 = PRODUCT_DEFINITION_CONTEXT ( 'detailed design', #109, 'design' ) ;
#167 = PRODUCT ( '7310038', '7310038', '', ( #80 ) ) ;
#168 = EDGE_LOOP ( 'NONE', ( #184, #130 ) ) ;
#169 = SURFACE_STYLE_FILL_AREA ( #77 ) ;
#170 = LINE ( 'NONE', #16, #155 ) ;
#171 = VERTEX_POINT ( 'NONE', #35 ) ;
#172 = EDGE_LOOP ( 'NONE', ( #153, #214, #174, #179 ) ) ;
#173 = EDGE_CURVE ( 'NONE', #62, #160, #164, .T. ) ;
#174 = ORIENTED_EDGE ( 'NONE', *, *, #203, .T. ) ;
#175 = LINE ( 'NONE', #40, #180 ) ;
#176 = FACE_OUTER_BOUND ( 'NONE', #103, .T. ) ;
#177 = FACE_OUTER_BOUND ( 'NONE', #133, .T. ) ;
#178 = CIRCLE ( 'NONE', #110, 13.99999999999999800 ) ;
#179 = ORIENTED_EDGE ( 'NONE', *, *, #181, .F. ) ;
#180 = VECTOR ( 'NONE', #47, 1000.000000000000000 ) ;
#181 = EDGE_CURVE ( 'NONE', #62, #192, #175, .T. ) ;
#182 = EDGE_CURVE ( 'NONE', #171, #31, #98, .T. ) ;
#183 = CYLINDRICAL_SURFACE ( 'NONE', #89, 13.99999999999999800 ) ;
#184 = ORIENTED_EDGE ( 'NONE', *, *, #173, .T. ) ;
#185 = EDGE_CURVE ( 'NONE', #171, #157, #148, .T. ) ;
#186 = EDGE_CURVE ( 'NONE', #160, #62, #204, .T. ) ;
#187 = EDGE_CURVE ( 'NONE', #31, #92, #150, .T. ) ;
#188 = EDGE_CURVE ( 'NONE', #157, #92, #208, .T. ) ;
#189 = MECHANICAL_DESIGN_GEOMETRIC_PRESENTATION_REPRESENTATION (  '', ( #201 ), #190 ) ;
#190 =( GEOMETRIC_REPRESENTATION_CONTEXT ( 3 ) GLOBAL_UNCERTAINTY_ASSIGNED_CONTEXT ( ( #99 ) ) GLOBAL_UNIT_ASSIGNED_CONTEXT ( ( #65, #64, #63 ) ) REPRESENTATION_CONTEXT ( 'NONE', 'WORKASPACE' ) );
#191 = PRESENTATION_LAYER_ASSIGNMENT (  '', '', ( #201 ) ) ;
#192 = VERTEX_POINT ( 'NONE', #15 ) ;
#193 = EDGE_CURVE ( 'NONE', #31, #171, #142, .T. ) ;
#194 = AXIS2_PLACEMENT_3D ( 'NONE', #57, #60, #50 ) ;
#195 = EDGE_CURVE ( 'NONE', #160, #42, #170, .T. ) ;
#196 = AXIS2_PLACEMENT_3D ( 'NONE', #114, #100, #11 ) ;
#197 = EDGE_CURVE ( 'NONE', #92, #157, #159, .T. ) ;
#198 = ORIENTED_EDGE ( 'NONE', *, *, #187, .T. ) ;
#199 = ORIENTED_EDGE ( 'NONE', *, *, #182, .T. ) ;
#200 = FACE_BOUND ( 'NONE', #120, .T. ) ;
#201 = STYLED_ITEM ( 'NONE', ( #81 ), #101 ) ;
#202 = ORIENTED_EDGE ( 'NONE', *, *, #195, .F. ) ;
#203 = EDGE_CURVE ( 'NONE', #42, #192, #178, .T. ) ;
#204 = CIRCLE ( 'NONE', #141, 13.99999999999999800 ) ;
#205 = AXIS2_PLACEMENT_3D ( 'NONE', #38, #37, #36 ) ;
#206 = ORIENTED_EDGE ( 'NONE', *, *, #173, .F. ) ;
#207 = CYLINDRICAL_SURFACE ( 'NONE', #116, 15.00000000000000000 ) ;
#208 = CIRCLE ( 'NONE', #119, 15.00000000000000000 ) ;
#209 = ORIENTED_EDGE ( 'NONE', *, *, #185, .T. ) ;
#210 = ORIENTED_EDGE ( 'NONE', *, *, #187, .F. ) ;
#211 = CARTESIAN_POINT ( 'NONE',  ( 0.0000000000000000000, 0.0000000000000000000, -150.0000000000000000 ) ) ;
#212 = EDGE_LOOP ( 'NONE', ( #202, #206, #45, #43 ) ) ;
#213 = AXIS2_PLACEMENT_3D ( 'NONE', #33, #2, #9 ) ;
#214 = ORIENTED_EDGE ( 'NONE', *, *, #195, .T. ) ;
ENDSEC;
END-ISO-10303-21;
