ISO-10303-21;
HEADER;
FILE_DESCRIPTION (( 'STEP AP214' ),
    '1' );
FILE_NAME ('7310037',
    '2019-01-30T09:07:40',
    ( '' ),
    ('JUGARD+KÜNSTNER GmbH'),
    'SwSTEP 2.0',
    'SolidWorks 2017',
    '' );
FILE_SCHEMA (( 'AUTOMOTIVE_DESIGN' ));
ENDSEC;

DATA;
#1 = APPLICATION_CONTEXT ( 'automotive_design' ) ;
#2 = ORIENTED_EDGE ( 'NONE', *, *, #148, .F. ) ;
#3 = PRODUCT_CONTEXT ( 'NONE', #120, 'mechanical' ) ;
#4 = DIRECTION ( 'NONE',  ( -0.0000000000000000000, -0.0000000000000000000, -1.000000000000000000 ) ) ;
#5 =( LENGTH_UNIT ( ) NAMED_UNIT ( * ) SI_UNIT ( .MILLI., .METRE. ) );
#6 = DIRECTION ( 'NONE',  ( 1.000000000000000000, 0.0000000000000000000, 0.0000000000000000000 ) ) ;
#7 = APPLICATION_PROTOCOL_DEFINITION ( 'draft international standard', 'automotive_design', 1998, #1 ) ;
#8 = FACE_OUTER_BOUND ( 'NONE', #38, .T. ) ;
#9 = DIRECTION ( 'NONE',  ( 0.0000000000000000000, 0.0000000000000000000, 1.000000000000000000 ) ) ;
#10 =( NAMED_UNIT ( * ) SI_UNIT ( $, .STERADIAN. ) SOLID_ANGLE_UNIT ( ) );
#11 = CARTESIAN_POINT ( 'NONE',  ( 13.99999999999999800, 1.714505518806294400E-015, 100.0000000000000000 ) ) ;
#12 = CARTESIAN_POINT ( 'NONE',  ( 0.0000000000000000000, 0.0000000000000000000, 100.0000000000000000 ) ) ;
#13 = FACE_OUTER_BOUND ( 'NONE', #168, .T. ) ;
#14 = DIRECTION ( 'NONE',  ( -1.000000000000000000, 0.0000000000000000000, 0.0000000000000000000 ) ) ;
#15 = CARTESIAN_POINT ( 'NONE',  ( 0.0000000000000000000, 0.0000000000000000000, 100.0000000000000000 ) ) ;
#16 = DIRECTION ( 'NONE',  ( -0.0000000000000000000, -0.0000000000000000000, -1.000000000000000000 ) ) ;
#17 = CARTESIAN_POINT ( 'NONE',  ( 13.99999999999999800, 1.714505518806294400E-015, 100.0000000000000000 ) ) ;
#18 = UNCERTAINTY_MEASURE_WITH_UNIT (LENGTH_MEASURE( 1.000000000000000100E-005 ), #43, 'distance_accuracy_value', 'NONE');
#19 = CARTESIAN_POINT ( 'NONE',  ( 0.0000000000000000000, 0.0000000000000000000, 100.0000000000000000 ) ) ;
#20 = CIRCLE ( 'NONE', #151, 13.99999999999999800 ) ;
#21 = DIRECTION ( 'NONE',  ( -0.0000000000000000000, -0.0000000000000000000, -1.000000000000000000 ) ) ;
#22 = DIRECTION ( 'NONE',  ( -1.000000000000000000, 0.0000000000000000000, 0.0000000000000000000 ) ) ;
#23 = CARTESIAN_POINT ( 'NONE',  ( 0.0000000000000000000, 0.0000000000000000000, 0.0000000000000000000 ) ) ;
#24 = APPLICATION_PROTOCOL_DEFINITION ( 'draft international standard', 'automotive_design', 1998, #120 ) ;
#25 = ORIENTED_EDGE ( 'NONE', *, *, #156, .F. ) ;
#26 = DIRECTION ( 'NONE',  ( -0.0000000000000000000, -0.0000000000000000000, -1.000000000000000000 ) ) ;
#27 = VECTOR ( 'NONE', #111, 1000.000000000000000 ) ;
#28 = CARTESIAN_POINT ( 'NONE',  ( 0.0000000000000000000, 0.0000000000000000000, 100.0000000000000000 ) ) ;
#29 = ORIENTED_EDGE ( 'NONE', *, *, #150, .T. ) ;
#30 = DIRECTION ( 'NONE',  ( -1.000000000000000000, 0.0000000000000000000, 0.0000000000000000000 ) ) ;
#31 = DIRECTION ( 'NONE',  ( 1.000000000000000000, 0.0000000000000000000, -0.0000000000000000000 ) ) ;
#32 = DIRECTION ( 'NONE',  ( 0.0000000000000000000, 0.0000000000000000000, 1.000000000000000000 ) ) ;
#33 = DIRECTION ( 'NONE',  ( -1.000000000000000000, 0.0000000000000000000, 0.0000000000000000000 ) ) ;
#34 = EDGE_LOOP ( 'NONE', ( #194, #82, #113, #134 ) ) ;
#35 = CARTESIAN_POINT ( 'NONE',  ( 0.0000000000000000000, 0.0000000000000000000, 100.0000000000000000 ) ) ;
#36 = CARTESIAN_POINT ( 'NONE',  ( -13.99999999999999800, 0.0000000000000000000, 100.0000000000000000 ) ) ;
#37 = PLANE ( 'NONE',  #158 ) ;
#38 = EDGE_LOOP ( 'NONE', ( #124, #100, #103, #167 ) ) ;
#39 = CARTESIAN_POINT ( 'NONE',  ( -15.00000000000000000, 0.0000000000000000000, 100.0000000000000000 ) ) ;
#40 = DIRECTION ( 'NONE',  ( -0.0000000000000000000, -0.0000000000000000000, -1.000000000000000000 ) ) ;
#41 = MANIFOLD_SOLID_BREP ( 'SolidBody1', #166 ) ;
#42 =( NAMED_UNIT ( * ) SI_UNIT ( $, .STERADIAN. ) SOLID_ANGLE_UNIT ( ) );
#43 =( LENGTH_UNIT ( ) NAMED_UNIT ( * ) SI_UNIT ( .MILLI., .METRE. ) );
#44 = DIRECTION ( 'NONE',  ( 0.0000000000000000000, 0.0000000000000000000, 1.000000000000000000 ) ) ;
#45 = DIRECTION ( 'NONE',  ( -1.000000000000000000, 0.0000000000000000000, 0.0000000000000000000 ) ) ;
#46 =( NAMED_UNIT ( * ) PLANE_ANGLE_UNIT ( ) SI_UNIT ( $, .RADIAN. ) );
#47 = CARTESIAN_POINT ( 'NONE',  ( 0.0000000000000000000, 0.0000000000000000000, -100.0000000000000000 ) ) ;
#48 =( LENGTH_UNIT ( ) NAMED_UNIT ( * ) SI_UNIT ( .MILLI., .METRE. ) );
#49 = CARTESIAN_POINT ( 'NONE',  ( 0.0000000000000000000, 0.0000000000000000000, 100.0000000000000000 ) ) ;
#50 = DIRECTION ( 'NONE',  ( -0.0000000000000000000, -0.0000000000000000000, -1.000000000000000000 ) ) ;
#51 = CARTESIAN_POINT ( 'NONE',  ( 15.00000000000000000, 1.836970198721029600E-015, -100.0000000000000000 ) ) ;
#52 = ORIENTED_EDGE ( 'NONE', *, *, #150, .F. ) ;
#53 = EDGE_LOOP ( 'NONE', ( #212, #79 ) ) ;
#54 = SURFACE_STYLE_FILL_AREA ( #64 ) ;
#55 = PRODUCT_DEFINITION_CONTEXT ( 'detailed design', #1, 'design' ) ;
#56 = CIRCLE ( 'NONE', #181, 13.99999999999999800 ) ;
#57 = CIRCLE ( 'NONE', #172, 15.00000000000000000 ) ;
#58 = ORIENTED_EDGE ( 'NONE', *, *, #159, .F. ) ;
#59 = DIRECTION ( 'NONE',  ( -0.0000000000000000000, -0.0000000000000000000, -1.000000000000000000 ) ) ;
#60 = CARTESIAN_POINT ( 'NONE',  ( 13.99999999999999800, 1.714505518806294400E-015, -100.0000000000000000 ) ) ;
#61 = FACE_OUTER_BOUND ( 'NONE', #34, .T. ) ;
#62 = CYLINDRICAL_SURFACE ( 'NONE', #164, 13.99999999999999800 ) ;
#63 = CARTESIAN_POINT ( 'NONE',  ( -15.00000000000000000, 0.0000000000000000000, -100.0000000000000000 ) ) ;
#64 = FILL_AREA_STYLE ('',( #78 ) ) ;
#65 = CARTESIAN_POINT ( 'NONE',  ( 15.00000000000000000, 1.836970198721029600E-015, 100.0000000000000000 ) ) ;
#66 = DIRECTION ( 'NONE',  ( -0.0000000000000000000, -0.0000000000000000000, -1.000000000000000000 ) ) ;
#67 = CARTESIAN_POINT ( 'NONE',  ( -13.99999999999999800, 0.0000000000000000000, -100.0000000000000000 ) ) ;
#68 = SURFACE_SIDE_STYLE ('',( #54 ) ) ;
#69 = CARTESIAN_POINT ( 'NONE',  ( -13.99999999999999800, 0.0000000000000000000, 100.0000000000000000 ) ) ;
#70 = VERTEX_POINT ( 'NONE', #65 ) ;
#71 = EDGE_LOOP ( 'NONE', ( #58, #29, #101, #204 ) ) ;
#72 = FACE_BOUND ( 'NONE', #53, .T. ) ;
#73 = CARTESIAN_POINT ( 'NONE',  ( 0.0000000000000000000, 0.0000000000000000000, -100.0000000000000000 ) ) ;
#74 =( NAMED_UNIT ( * ) SI_UNIT ( $, .STERADIAN. ) SOLID_ANGLE_UNIT ( ) );
#75 = SURFACE_STYLE_USAGE ( .BOTH. , #68 ) ;
#76 = CARTESIAN_POINT ( 'NONE',  ( 0.0000000000000000000, 0.0000000000000000000, -100.0000000000000000 ) ) ;
#77 = DIRECTION ( 'NONE',  ( -1.000000000000000000, 0.0000000000000000000, 0.0000000000000000000 ) ) ;
#78 = FILL_AREA_STYLE_COLOUR ( '', #160 ) ;
#79 = ORIENTED_EDGE ( 'NONE', *, *, #159, .T. ) ;
#80 = EDGE_LOOP ( 'NONE', ( #2, #174 ) ) ;
#81 = DIRECTION ( 'NONE',  ( 1.000000000000000000, 0.0000000000000000000, -0.0000000000000000000 ) ) ;
#82 = ORIENTED_EDGE ( 'NONE', *, *, #161, .T. ) ;
#83 = CARTESIAN_POINT ( 'NONE',  ( 0.0000000000000000000, 0.0000000000000000000, 100.0000000000000000 ) ) ;
#84 = VERTEX_POINT ( 'NONE', #60 ) ;
#85 = DIRECTION ( 'NONE',  ( -1.000000000000000000, 0.0000000000000000000, 0.0000000000000000000 ) ) ;
#86 = DIRECTION ( 'NONE',  ( -1.000000000000000000, 0.0000000000000000000, 0.0000000000000000000 ) ) ;
#87 = LINE ( 'NONE', #69, #27 ) ;
#88 = FILL_AREA_STYLE_COLOUR ( '', #126 ) ;
#89 = SHAPE_DEFINITION_REPRESENTATION ( #209, #130 ) ;
#90 = CARTESIAN_POINT ( 'NONE',  ( 0.0000000000000000000, 0.0000000000000000000, -100.0000000000000000 ) ) ;
#91 = DIRECTION ( 'NONE',  ( -0.0000000000000000000, -0.0000000000000000000, -1.000000000000000000 ) ) ;
#92 = DIRECTION ( 'NONE',  ( -0.0000000000000000000, -0.0000000000000000000, -1.000000000000000000 ) ) ;
#93 = CARTESIAN_POINT ( 'NONE',  ( -15.00000000000000000, 0.0000000000000000000, 100.0000000000000000 ) ) ;
#94 = CYLINDRICAL_SURFACE ( 'NONE', #152, 13.99999999999999800 ) ;
#95 = DIRECTION ( 'NONE',  ( -1.000000000000000000, 0.0000000000000000000, 0.0000000000000000000 ) ) ;
#96 = PRESENTATION_STYLE_ASSIGNMENT (( #75 ) ) ;
#97 =( NAMED_UNIT ( * ) PLANE_ANGLE_UNIT ( ) SI_UNIT ( $, .RADIAN. ) );
#98 = DIRECTION ( 'NONE',  ( 0.0000000000000000000, 0.0000000000000000000, 1.000000000000000000 ) ) ;
#99 = CARTESIAN_POINT ( 'NONE',  ( 0.0000000000000000000, 0.0000000000000000000, 100.0000000000000000 ) ) ;
#100 = ORIENTED_EDGE ( 'NONE', *, *, #149, .T. ) ;
#101 = ORIENTED_EDGE ( 'NONE', *, *, #146, .T. ) ;
#102 = ORIENTED_EDGE ( 'NONE', *, *, #156, .T. ) ;
#103 = ORIENTED_EDGE ( 'NONE', *, *, #145, .T. ) ;
#104 = VECTOR ( 'NONE', #59, 1000.000000000000000 ) ;
#105 = PLANE ( 'NONE',  #170 ) ;
#106 = DIRECTION ( 'NONE',  ( -0.0000000000000000000, -0.0000000000000000000, -1.000000000000000000 ) ) ;
#107 = VERTEX_POINT ( 'NONE', #63 ) ;
#108 = ORIENTED_EDGE ( 'NONE', *, *, #145, .F. ) ;
#109 = UNCERTAINTY_MEASURE_WITH_UNIT (LENGTH_MEASURE( 1.000000000000000100E-005 ), #5, 'distance_accuracy_value', 'NONE');
#110 = ORIENTED_EDGE ( 'NONE', *, *, #147, .T. ) ;
#111 = DIRECTION ( 'NONE',  ( -0.0000000000000000000, -0.0000000000000000000, -1.000000000000000000 ) ) ;
#112 = LINE ( 'NONE', #11, #211 ) ;
#113 = ORIENTED_EDGE ( 'NONE', *, *, #144, .T. ) ;
#114 = CARTESIAN_POINT ( 'NONE',  ( 0.0000000000000000000, 0.0000000000000000000, 100.0000000000000000 ) ) ;
#115 = SURFACE_STYLE_USAGE ( .BOTH. , #129 ) ;
#116 = ORIENTED_EDGE ( 'NONE', *, *, #171, .F. ) ;
#117 = VERTEX_POINT ( 'NONE', #51 ) ;
#118 = DIRECTION ( 'NONE',  ( 0.0000000000000000000, 0.0000000000000000000, 1.000000000000000000 ) ) ;
#119 = VERTEX_POINT ( 'NONE', #36 ) ;
#120 = APPLICATION_CONTEXT ( 'automotive_design' ) ;
#121 = CYLINDRICAL_SURFACE ( 'NONE', #180, 15.00000000000000000 ) ;
#122 = DIRECTION ( 'NONE',  ( -0.0000000000000000000, -0.0000000000000000000, -1.000000000000000000 ) ) ;
#123 =( NAMED_UNIT ( * ) PLANE_ANGLE_UNIT ( ) SI_UNIT ( $, .RADIAN. ) );
#124 = ORIENTED_EDGE ( 'NONE', *, *, #148, .T. ) ;
#125 = CARTESIAN_POINT ( 'NONE',  ( 15.00000000000000000, 1.836970198721029600E-015, 100.0000000000000000 ) ) ;
#126 = COLOUR_RGB ( '',0.6470588235294118000, 0.6196078431372549200, 0.5882352941176470800 ) ;
#127 = VECTOR ( 'NONE', #106, 1000.000000000000000 ) ;
#128 = DIRECTION ( 'NONE',  ( -1.000000000000000000, 0.0000000000000000000, 0.0000000000000000000 ) ) ;
#129 = SURFACE_SIDE_STYLE ('',( #208 ) ) ;
#130 = ADVANCED_BREP_SHAPE_REPRESENTATION ( '7310037', ( #41, #187 ), #183 ) ;
#131 = CIRCLE ( 'NONE', #178, 15.00000000000000000 ) ;
#132 = DIRECTION ( 'NONE',  ( -1.000000000000000000, 0.0000000000000000000, 0.0000000000000000000 ) ) ;
#133 = ADVANCED_FACE ( 'NONE', ( #72, #188 ), #37, .T. ) ;
#134 = ORIENTED_EDGE ( 'NONE', *, *, #214, .T. ) ;
#135 = VERTEX_POINT ( 'NONE', #39 ) ;
#136 = ADVANCED_FACE ( 'NONE', ( #13 ), #62, .F. ) ;
#137 = ADVANCED_FACE ( 'NONE', ( #61 ), #143, .T. ) ;
#138 = ADVANCED_FACE ( 'NONE', ( #162 ), #94, .F. ) ;
#139 = ADVANCED_FACE ( 'NONE', ( #190, #210 ), #105, .F. ) ;
#140 = FILL_AREA_STYLE ('',( #88 ) ) ;
#141 = ADVANCED_FACE ( 'NONE', ( #8 ), #121, .T. ) ;
#142 = CARTESIAN_POINT ( 'NONE',  ( 0.0000000000000000000, 0.0000000000000000000, -100.0000000000000000 ) ) ;
#143 = CYLINDRICAL_SURFACE ( 'NONE', #176, 15.00000000000000000 ) ;
#144 = EDGE_CURVE ( 'NONE', #135, #107, #189, .T. ) ;
#145 = EDGE_CURVE ( 'NONE', #117, #107, #57, .T. ) ;
#146 = EDGE_CURVE ( 'NONE', #84, #199, #20, .T. ) ;
#147 = EDGE_CURVE ( 'NONE', #119, #199, #87, .T. ) ;
#148 = EDGE_CURVE ( 'NONE', #135, #70, #202, .T. ) ;
#149 = EDGE_CURVE ( 'NONE', #70, #117, #198, .T. ) ;
#150 = EDGE_CURVE ( 'NONE', #205, #84, #112, .T. ) ;
#151 = AXIS2_PLACEMENT_3D ( 'NONE', #90, #50, #85 ) ;
#152 = AXIS2_PLACEMENT_3D ( 'NONE', #83, #91, #184 ) ;
#153 = PRESENTATION_LAYER_ASSIGNMENT (  '', '', ( #179 ) ) ;
#154 =( GEOMETRIC_REPRESENTATION_CONTEXT ( 3 ) GLOBAL_UNCERTAINTY_ASSIGNED_CONTEXT ( ( #207 ) ) GLOBAL_UNIT_ASSIGNED_CONTEXT ( ( #48, #46, #42 ) ) REPRESENTATION_CONTEXT ( 'NONE', 'WORKASPACE' ) );
#155 = MECHANICAL_DESIGN_GEOMETRIC_PRESENTATION_REPRESENTATION (  '', ( #179 ), #154 ) ;
#156 = EDGE_CURVE ( 'NONE', #199, #84, #192, .T. ) ;
#157 = AXIS2_PLACEMENT_3D ( 'NONE', #142, #122, #128 ) ;
#158 = AXIS2_PLACEMENT_3D ( 'NONE', #35, #32, #31 ) ;
#159 = EDGE_CURVE ( 'NONE', #205, #119, #56, .T. ) ;
#160 = COLOUR_RGB ( '',0.6470588235294118000, 0.6196078431372549200, 0.5882352941176470800 ) ;
#161 = EDGE_CURVE ( 'NONE', #70, #135, #196, .T. ) ;
#162 = FACE_OUTER_BOUND ( 'NONE', #71, .T. ) ;
#163 = PRESENTATION_LAYER_ASSIGNMENT (  '', '', ( #169 ) ) ;
#164 = AXIS2_PLACEMENT_3D ( 'NONE', #28, #26, #30 ) ;
#165 = EDGE_LOOP ( 'NONE', ( #193, #108 ) ) ;
#166 = CLOSED_SHELL ( 'NONE', ( #141, #138, #137, #139, #133, #136 ) ) ;
#167 = ORIENTED_EDGE ( 'NONE', *, *, #144, .F. ) ;
#168 = EDGE_LOOP ( 'NONE', ( #52, #116, #110, #102 ) ) ;
#169 = STYLED_ITEM ( 'NONE', ( #200 ), #130 ) ;
#170 = AXIS2_PLACEMENT_3D ( 'NONE', #76, #98, #81 ) ;
#171 = EDGE_CURVE ( 'NONE', #119, #205, #203, .T. ) ;
#172 = AXIS2_PLACEMENT_3D ( 'NONE', #73, #118, #86 ) ;
#173 = PRODUCT_RELATED_PRODUCT_CATEGORY ( 'part', '', ( #186 ) ) ;
#174 = ORIENTED_EDGE ( 'NONE', *, *, #161, .F. ) ;
#175 = AXIS2_PLACEMENT_3D ( 'NONE', #15, #16, #14 ) ;
#176 = AXIS2_PLACEMENT_3D ( 'NONE', #12, #4, #33 ) ;
#177 = PRODUCT_DEFINITION_FORMATION_WITH_SPECIFIED_SOURCE ( 'ANY', '', #186, .NOT_KNOWN. ) ;
#178 = AXIS2_PLACEMENT_3D ( 'NONE', #47, #44, #45 ) ;
#179 = STYLED_ITEM ( 'NONE', ( #96 ), #41 ) ;
#180 = AXIS2_PLACEMENT_3D ( 'NONE', #99, #66, #95 ) ;
#181 = AXIS2_PLACEMENT_3D ( 'NONE', #49, #40, #132 ) ;
#182 = PRODUCT_DEFINITION ( 'UNKNOWN', '', #177, #55 ) ;
#183 =( GEOMETRIC_REPRESENTATION_CONTEXT ( 3 ) GLOBAL_UNCERTAINTY_ASSIGNED_CONTEXT ( ( #18 ) ) GLOBAL_UNIT_ASSIGNED_CONTEXT ( ( #43, #123, #10 ) ) REPRESENTATION_CONTEXT ( 'NONE', 'WORKASPACE' ) );
#184 = DIRECTION ( 'NONE',  ( -1.000000000000000000, 0.0000000000000000000, 0.0000000000000000000 ) ) ;
#185 = MECHANICAL_DESIGN_GEOMETRIC_PRESENTATION_REPRESENTATION (  '', ( #169 ), #195 ) ;
#186 = PRODUCT ( '7310037', '7310037', '', ( #3 ) ) ;
#187 = AXIS2_PLACEMENT_3D ( 'NONE', #23, #9, #6 ) ;
#188 = FACE_OUTER_BOUND ( 'NONE', #80, .T. ) ;
#189 = LINE ( 'NONE', #93, #127 ) ;
#190 = FACE_BOUND ( 'NONE', #206, .T. ) ;
#191 = AXIS2_PLACEMENT_3D ( 'NONE', #19, #21, #22 ) ;
#192 = CIRCLE ( 'NONE', #157, 13.99999999999999800 ) ;
#193 = ORIENTED_EDGE ( 'NONE', *, *, #214, .F. ) ;
#194 = ORIENTED_EDGE ( 'NONE', *, *, #149, .F. ) ;
#195 =( GEOMETRIC_REPRESENTATION_CONTEXT ( 3 ) GLOBAL_UNCERTAINTY_ASSIGNED_CONTEXT ( ( #109 ) ) GLOBAL_UNIT_ASSIGNED_CONTEXT ( ( #5, #97, #74 ) ) REPRESENTATION_CONTEXT ( 'NONE', 'WORKASPACE' ) );
#196 = CIRCLE ( 'NONE', #191, 15.00000000000000000 ) ;
#197 = DIRECTION ( 'NONE',  ( -0.0000000000000000000, -0.0000000000000000000, -1.000000000000000000 ) ) ;
#198 = LINE ( 'NONE', #125, #104 ) ;
#199 = VERTEX_POINT ( 'NONE', #67 ) ;
#200 = PRESENTATION_STYLE_ASSIGNMENT (( #115 ) ) ;
#201 = AXIS2_PLACEMENT_3D ( 'NONE', #114, #92, #77 ) ;
#202 = CIRCLE ( 'NONE', #201, 15.00000000000000000 ) ;
#203 = CIRCLE ( 'NONE', #175, 13.99999999999999800 ) ;
#204 = ORIENTED_EDGE ( 'NONE', *, *, #147, .F. ) ;
#205 = VERTEX_POINT ( 'NONE', #17 ) ;
#206 = EDGE_LOOP ( 'NONE', ( #25, #213 ) ) ;
#207 = UNCERTAINTY_MEASURE_WITH_UNIT (LENGTH_MEASURE( 1.000000000000000100E-005 ), #48, 'distance_accuracy_value', 'NONE');
#208 = SURFACE_STYLE_FILL_AREA ( #140 ) ;
#209 = PRODUCT_DEFINITION_SHAPE ( 'NONE', 'NONE',  #182 ) ;
#210 = FACE_OUTER_BOUND ( 'NONE', #165, .T. ) ;
#211 = VECTOR ( 'NONE', #197, 1000.000000000000000 ) ;
#212 = ORIENTED_EDGE ( 'NONE', *, *, #171, .T. ) ;
#213 = ORIENTED_EDGE ( 'NONE', *, *, #146, .F. ) ;
#214 = EDGE_CURVE ( 'NONE', #107, #117, #131, .T. ) ;
ENDSEC;
END-ISO-10303-21;
