ISO-10303-21;
HEADER;
FILE_DESCRIPTION (( 'STEP AP214' ),
    '1' );
FILE_NAME ('7251003',
    '2019-02-01T14:20:09',
    ( '' ),
    ('JUGARD+KÜNSTNER GmbH'),
    'SwSTEP 2.0',
    'SolidWorks 2017',
    '' );
FILE_SCHEMA (( 'AUTOMOTIVE_DESIGN' ));
ENDSEC;

DATA;
#1 = ADVANCED_FACE ( 'NONE', ( #66 ), #98, .T. ) ;
#2 = PRESENTATION_LAYER_ASSIGNMENT (  '', '', ( #15 ) ) ;
#3 = ORIENTED_EDGE ( 'NONE', *, *, #154, .F. ) ;
#4 = VERTEX_POINT ( 'NONE', #58 ) ;
#5 = AXIS2_PLACEMENT_3D ( 'NONE', #83, #11, #10 ) ;
#6 = SURFACE_STYLE_FILL_AREA ( #27 ) ;
#7 = FILL_AREA_STYLE ('',( #80 ) ) ;
#8 = PRESENTATION_LAYER_ASSIGNMENT (  '', '', ( #103 ) ) ;
#9 = SURFACE_STYLE_USAGE ( .BOTH. , #81 ) ;
#10 = DIRECTION ( 'NONE',  ( 0.0000000000000000000, 1.000000000000000000, -1.224646799147350000E-016 ) ) ;
#11 = DIRECTION ( 'NONE',  ( 7.888609052210119800E-031, -1.224646799147350000E-016, -1.000000000000000000 ) ) ;
#12 = AXIS2_PLACEMENT_3D ( 'NONE', #93, #168, #167 ) ;
#13 = PRESENTATION_LAYER_ASSIGNMENT (  '', '', ( #20 ) ) ;
#14 = DIRECTION ( 'NONE',  ( 0.0000000000000000000, 0.0000000000000000000, 1.000000000000000000 ) ) ;
#15 = STYLED_ITEM ( 'NONE', ( #38 ), #155 ) ;
#16 = LINE ( 'NONE', #110, #29 ) ;
#17 = ORIENTED_EDGE ( 'NONE', *, *, #75, .F. ) ;
#18 =( GEOMETRIC_REPRESENTATION_CONTEXT ( 3 ) GLOBAL_UNCERTAINTY_ASSIGNED_CONTEXT ( ( #85 ) ) GLOBAL_UNIT_ASSIGNED_CONTEXT ( ( #108, #59, #105 ) ) REPRESENTATION_CONTEXT ( 'NONE', 'WORKASPACE' ) );
#19 = EDGE_LOOP ( 'NONE', ( #57, #69, #147, #78 ) ) ;
#20 = STYLED_ITEM ( 'NONE', ( #123 ), #55 ) ;
#21 = SURFACE_SIDE_STYLE ('',( #44 ) ) ;
#22 =( NAMED_UNIT ( * ) PLANE_ANGLE_UNIT ( ) SI_UNIT ( $, .RADIAN. ) );
#23 = CARTESIAN_POINT ( 'NONE',  ( 19.59655121533110000, 6.158972479037229800, 634.9999999999740800 ) ) ;
#24 = STYLED_ITEM ( 'NONE', ( #25 ), #54 ) ;
#25 = PRESENTATION_STYLE_ASSIGNMENT (( #33 ) ) ;
#26 = DIRECTION ( 'NONE',  ( -7.888609052210119800E-031, 1.224646799147350000E-016, 1.000000000000000000 ) ) ;
#27 = FILL_AREA_STYLE ('',( #145 ) ) ;
#28 = SURFACE_STYLE_USAGE ( .BOTH. , #62 ) ;
#29 = VECTOR ( 'NONE', #153, 1000.000000000000000 ) ;
#30 = MECHANICAL_DESIGN_GEOMETRIC_PRESENTATION_REPRESENTATION (  '', ( #20 ), #136 ) ;
#31 = ORIENTED_EDGE ( 'NONE', *, *, #67, .T. ) ;
#32 = CIRCLE ( 'NONE', #148, 4.924999999999999800 ) ;
#33 = SURFACE_STYLE_USAGE ( .BOTH. , #109 ) ;
#34 = DIRECTION ( 'NONE',  ( 7.888609052210119800E-031, -1.224646799147350000E-016, -1.000000000000000000 ) ) ;
#35 = DIRECTION ( 'NONE',  ( 7.888609052210119800E-031, -1.224646799147350000E-016, -1.000000000000000000 ) ) ;
#36 = DIRECTION ( 'NONE',  ( 7.888609052210119800E-031, -1.224646799147350000E-016, -1.000000000000000000 ) ) ;
#37 =( GEOMETRIC_REPRESENTATION_CONTEXT ( 3 ) GLOBAL_UNCERTAINTY_ASSIGNED_CONTEXT ( ( #159 ) ) GLOBAL_UNIT_ASSIGNED_CONTEXT ( ( #130, #22, #49 ) ) REPRESENTATION_CONTEXT ( 'NONE', 'WORKASPACE' ) );
#38 = PRESENTATION_STYLE_ASSIGNMENT (( #9 ) ) ;
#39 = COLOUR_RGB ( '',1.000000000000000000, 1.000000000000000000, 1.000000000000000000 ) ;
#40 = FILL_AREA_STYLE ('',( #71 ) ) ;
#41 = CIRCLE ( 'NONE', #84, 4.924999999999999800 ) ;
#42 = PRESENTATION_STYLE_ASSIGNMENT (( #152 ) ) ;
#43 = UNCERTAINTY_MEASURE_WITH_UNIT (LENGTH_MEASURE( 1.000000000000000100E-005 ), #46, 'distance_accuracy_value', 'NONE');
#44 = SURFACE_STYLE_FILL_AREA ( #7 ) ;
#45 = FILL_AREA_STYLE_COLOUR ( '', #101 ) ;
#46 =( LENGTH_UNIT ( ) NAMED_UNIT ( * ) SI_UNIT ( .MILLI., .METRE. ) );
#47 = EDGE_CURVE ( 'NONE', #104, #4, #16, .T. ) ;
#48 = DIRECTION ( 'NONE',  ( -7.888609052210119800E-031, 1.224646799147350000E-016, 1.000000000000000000 ) ) ;
#49 =( NAMED_UNIT ( * ) SI_UNIT ( $, .STERADIAN. ) SOLID_ANGLE_UNIT ( ) );
#50 = CIRCLE ( 'NONE', #12, 4.924999999999999800 ) ;
#51 = ORIENTED_EDGE ( 'NONE', *, *, #131, .F. ) ;
#52 = DIRECTION ( 'NONE',  ( 0.0000000000000000000, 1.000000000000000000, 0.0000000000000000000 ) ) ;
#53 = DIRECTION ( 'NONE',  ( 0.0000000000000000000, 1.000000000000000000, 0.0000000000000000000 ) ) ;
#54 = ADVANCED_FACE ( 'NONE', ( #87 ), #107, .T. ) ;
#55 = ADVANCED_BREP_SHAPE_REPRESENTATION ( '7251003_CNAJF00', ( #155, #128 ), #126 ) ;
#56 = APPLICATION_PROTOCOL_DEFINITION ( 'draft international standard', 'automotive_design', 1998, #116 ) ;
#57 = ORIENTED_EDGE ( 'NONE', *, *, #47, .F. ) ;
#58 = CARTESIAN_POINT ( 'NONE',  ( 19.59655121533110000, -3.691027520962892000, -365.0000000000259800 ) ) ;
#59 =( NAMED_UNIT ( * ) PLANE_ANGLE_UNIT ( ) SI_UNIT ( $, .RADIAN. ) );
#60 = PLANE ( 'NONE',  #5 ) ;
#61 = VERTEX_POINT ( 'NONE', #92 ) ;
#62 = SURFACE_SIDE_STYLE ('',( #137 ) ) ;
#63 = ADVANCED_FACE ( 'NONE', ( #133 ), #144, .T. ) ;
#64 =( LENGTH_UNIT ( ) NAMED_UNIT ( * ) SI_UNIT ( .MILLI., .METRE. ) );
#65 =( NAMED_UNIT ( * ) PLANE_ANGLE_UNIT ( ) SI_UNIT ( $, .RADIAN. ) );
#66 = FACE_OUTER_BOUND ( 'NONE', #19, .T. ) ;
#67 = EDGE_CURVE ( 'NONE', #4, #141, #32, .T. ) ;
#68 = UNCERTAINTY_MEASURE_WITH_UNIT (LENGTH_MEASURE( 1.000000000000000100E-005 ), #142, 'distance_accuracy_value', 'NONE');
#69 = ORIENTED_EDGE ( 'NONE', *, *, #131, .T. ) ;
#70 = CARTESIAN_POINT ( 'NONE',  ( 19.59655121533110000, 1.233972479037107600, -365.0000000000259800 ) ) ;
#71 = FILL_AREA_STYLE_COLOUR ( '', #134 ) ;
#72 = CARTESIAN_POINT ( 'NONE',  ( 19.59655121533110000, 1.233972479037230200, 634.9999999999740800 ) ) ;
#73 = VECTOR ( 'NONE', #35, 1000.000000000000000 ) ;
#74 = ADVANCED_FACE ( 'NONE', ( #91 ), #60, .F. ) ;
#75 = EDGE_CURVE ( 'NONE', #61, #141, #89, .T. ) ;
#76 = CLOSED_SHELL ( 'NONE', ( #54, #1, #74, #63 ) ) ;
#77 = MECHANICAL_DESIGN_GEOMETRIC_PRESENTATION_REPRESENTATION (  '', ( #15 ), #37 ) ;
#78 = ORIENTED_EDGE ( 'NONE', *, *, #154, .T. ) ;
#79 = DIRECTION ( 'NONE',  ( 7.888609052210119800E-031, -1.224646799147350000E-016, -1.000000000000000000 ) ) ;
#80 = FILL_AREA_STYLE_COLOUR ( '', #39 ) ;
#81 = SURFACE_SIDE_STYLE ('',( #6 ) ) ;
#82 =( NAMED_UNIT ( * ) PLANE_ANGLE_UNIT ( ) SI_UNIT ( $, .RADIAN. ) );
#83 = CARTESIAN_POINT ( 'NONE',  ( 19.59655121533110000, 1.233972479037230200, 634.9999999999740800 ) ) ;
#84 = AXIS2_PLACEMENT_3D ( 'NONE', #127, #48, #52 ) ;
#85 = UNCERTAINTY_MEASURE_WITH_UNIT (LENGTH_MEASURE( 1.000000000000000100E-005 ), #108, 'distance_accuracy_value', 'NONE');
#86 =( NAMED_UNIT ( * ) SI_UNIT ( $, .STERADIAN. ) SOLID_ANGLE_UNIT ( ) );
#87 = FACE_OUTER_BOUND ( 'NONE', #112, .T. ) ;
#88 = PRODUCT_RELATED_PRODUCT_CATEGORY ( 'part', '', ( #150 ) ) ;
#89 = LINE ( 'NONE', #23, #73 ) ;
#90 = SHAPE_DEFINITION_REPRESENTATION ( #125, #55 ) ;
#91 = FACE_OUTER_BOUND ( 'NONE', #139, .T. ) ;
#92 = CARTESIAN_POINT ( 'NONE',  ( 19.59655121533110000, 6.158972479037229800, 634.9999999999740800 ) ) ;
#93 = CARTESIAN_POINT ( 'NONE',  ( 19.59655121533110000, 1.233972479037230200, 634.9999999999740800 ) ) ;
#94 =( NAMED_UNIT ( * ) SI_UNIT ( $, .STERADIAN. ) SOLID_ANGLE_UNIT ( ) );
#95 = DIRECTION ( 'NONE',  ( 0.0000000000000000000, 1.000000000000000000, -1.224646799147350000E-016 ) ) ;
#96 = ORIENTED_EDGE ( 'NONE', *, *, #161, .T. ) ;
#97 = PRODUCT_DEFINITION_CONTEXT ( 'detailed design', #116, 'design' ) ;
#98 = CYLINDRICAL_SURFACE ( 'NONE', #106, 4.924999999999999800 ) ;
#99 =( GEOMETRIC_REPRESENTATION_CONTEXT ( 3 ) GLOBAL_UNCERTAINTY_ASSIGNED_CONTEXT ( ( #43 ) ) GLOBAL_UNIT_ASSIGNED_CONTEXT ( ( #46, #140, #169 ) ) REPRESENTATION_CONTEXT ( 'NONE', 'WORKASPACE' ) );
#100 = APPLICATION_PROTOCOL_DEFINITION ( 'draft international standard', 'automotive_design', 1998, #115 ) ;
#101 = COLOUR_RGB ( '',1.000000000000000000, 1.000000000000000000, 1.000000000000000000 ) ;
#102 = ORIENTED_EDGE ( 'NONE', *, *, #67, .F. ) ;
#103 = STYLED_ITEM ( 'NONE', ( #42 ), #1 ) ;
#104 = VERTEX_POINT ( 'NONE', #129 ) ;
#105 =( NAMED_UNIT ( * ) SI_UNIT ( $, .STERADIAN. ) SOLID_ANGLE_UNIT ( ) );
#106 = AXIS2_PLACEMENT_3D ( 'NONE', #122, #124, #165 ) ;
#107 = CYLINDRICAL_SURFACE ( 'NONE', #143, 4.924999999999999800 ) ;
#108 =( LENGTH_UNIT ( ) NAMED_UNIT ( * ) SI_UNIT ( .MILLI., .METRE. ) );
#109 = SURFACE_SIDE_STYLE ('',( #149 ) ) ;
#110 = CARTESIAN_POINT ( 'NONE',  ( 19.59655121533110000, -3.691027520962769900, 634.9999999999740800 ) ) ;
#111 = PRODUCT_DEFINITION_FORMATION_WITH_SPECIFIED_SOURCE ( 'ANY', '', #150, .NOT_KNOWN. ) ;
#112 = EDGE_LOOP ( 'NONE', ( #96, #117, #31, #17 ) ) ;
#113 = CARTESIAN_POINT ( 'NONE',  ( 19.59655121533110000, 6.158972479037107200, -365.0000000000259800 ) ) ;
#114 = CARTESIAN_POINT ( 'NONE',  ( 19.59655121533110000, 1.233972479037110300, -365.0000000000259800 ) ) ;
#115 = APPLICATION_CONTEXT ( 'automotive_design' ) ;
#116 = APPLICATION_CONTEXT ( 'automotive_design' ) ;
#117 = ORIENTED_EDGE ( 'NONE', *, *, #47, .T. ) ;
#118 = MECHANICAL_DESIGN_GEOMETRIC_PRESENTATION_REPRESENTATION (  '', ( #24 ), #99 ) ;
#119 = UNCERTAINTY_MEASURE_WITH_UNIT (LENGTH_MEASURE( 1.000000000000000100E-005 ), #64, 'distance_accuracy_value', 'NONE');
#120 = AXIS2_PLACEMENT_3D ( 'NONE', #114, #36, #95 ) ;
#121 = CARTESIAN_POINT ( 'NONE',  ( 19.59655121533110000, 1.233972479037230200, 634.9999999999740800 ) ) ;
#122 = CARTESIAN_POINT ( 'NONE',  ( 19.59655121533110000, 1.233972479037230200, 634.9999999999740800 ) ) ;
#123 = PRESENTATION_STYLE_ASSIGNMENT (( #28 ) ) ;
#124 = DIRECTION ( 'NONE',  ( 7.888609052210119800E-031, -1.224646799147350000E-016, -1.000000000000000000 ) ) ;
#125 = PRODUCT_DEFINITION_SHAPE ( 'NONE', 'NONE',  #146 ) ;
#126 =( GEOMETRIC_REPRESENTATION_CONTEXT ( 3 ) GLOBAL_UNCERTAINTY_ASSIGNED_CONTEXT ( ( #68 ) ) GLOBAL_UNIT_ASSIGNED_CONTEXT ( ( #142, #82, #94 ) ) REPRESENTATION_CONTEXT ( 'NONE', 'WORKASPACE' ) );
#127 = CARTESIAN_POINT ( 'NONE',  ( 19.59655121533110000, 1.233972479037107600, -365.0000000000259800 ) ) ;
#128 = AXIS2_PLACEMENT_3D ( 'NONE', #156, #14, #132 ) ;
#129 = CARTESIAN_POINT ( 'NONE',  ( 19.59655121533110000, -3.691027520962769900, 634.9999999999740800 ) ) ;
#130 =( LENGTH_UNIT ( ) NAMED_UNIT ( * ) SI_UNIT ( .MILLI., .METRE. ) );
#131 = EDGE_CURVE ( 'NONE', #104, #61, #135, .T. ) ;
#132 = DIRECTION ( 'NONE',  ( 1.000000000000000000, 0.0000000000000000000, 0.0000000000000000000 ) ) ;
#133 = FACE_OUTER_BOUND ( 'NONE', #166, .T. ) ;
#134 = COLOUR_RGB ( '',0.7529411764705882200, 0.7529411764705882200, 0.7529411764705882200 ) ;
#135 = CIRCLE ( 'NONE', #151, 4.924999999999999800 ) ;
#136 =( GEOMETRIC_REPRESENTATION_CONTEXT ( 3 ) GLOBAL_UNCERTAINTY_ASSIGNED_CONTEXT ( ( #119 ) ) GLOBAL_UNIT_ASSIGNED_CONTEXT ( ( #64, #65, #86 ) ) REPRESENTATION_CONTEXT ( 'NONE', 'WORKASPACE' ) );
#137 = SURFACE_STYLE_FILL_AREA ( #40 ) ;
#138 = FILL_AREA_STYLE ('',( #45 ) ) ;
#139 = EDGE_LOOP ( 'NONE', ( #158, #51 ) ) ;
#140 =( NAMED_UNIT ( * ) PLANE_ANGLE_UNIT ( ) SI_UNIT ( $, .RADIAN. ) );
#141 = VERTEX_POINT ( 'NONE', #113 ) ;
#142 =( LENGTH_UNIT ( ) NAMED_UNIT ( * ) SI_UNIT ( .MILLI., .METRE. ) );
#143 = AXIS2_PLACEMENT_3D ( 'NONE', #121, #79, #160 ) ;
#144 = PLANE ( 'NONE',  #120 ) ;
#145 = FILL_AREA_STYLE_COLOUR ( '', #170 ) ;
#146 = PRODUCT_DEFINITION ( 'UNKNOWN', '', #111, #97 ) ;
#147 = ORIENTED_EDGE ( 'NONE', *, *, #75, .T. ) ;
#148 = AXIS2_PLACEMENT_3D ( 'NONE', #70, #26, #53 ) ;
#149 = SURFACE_STYLE_FILL_AREA ( #138 ) ;
#150 = PRODUCT ( '7251003_CNAJF00', '7251003_CNAJF00', '', ( #162 ) ) ;
#151 = AXIS2_PLACEMENT_3D ( 'NONE', #72, #34, #157 ) ;
#152 = SURFACE_STYLE_USAGE ( .BOTH. , #21 ) ;
#153 = DIRECTION ( 'NONE',  ( 7.888609052210119800E-031, -1.224646799147350000E-016, -1.000000000000000000 ) ) ;
#154 = EDGE_CURVE ( 'NONE', #141, #4, #41, .T. ) ;
#155 = MANIFOLD_SOLID_BREP ( 'Importiert1', #76 ) ;
#156 = CARTESIAN_POINT ( 'NONE',  ( 0.0000000000000000000, 0.0000000000000000000, 0.0000000000000000000 ) ) ;
#157 = DIRECTION ( 'NONE',  ( 0.0000000000000000000, 1.000000000000000000, 0.0000000000000000000 ) ) ;
#158 = ORIENTED_EDGE ( 'NONE', *, *, #161, .F. ) ;
#159 = UNCERTAINTY_MEASURE_WITH_UNIT (LENGTH_MEASURE( 1.000000000000000100E-005 ), #130, 'distance_accuracy_value', 'NONE');
#160 = DIRECTION ( 'NONE',  ( 0.0000000000000000000, 1.000000000000000000, 0.0000000000000000000 ) ) ;
#161 = EDGE_CURVE ( 'NONE', #61, #104, #50, .T. ) ;
#162 = PRODUCT_CONTEXT ( 'NONE', #115, 'mechanical' ) ;
#163 = MECHANICAL_DESIGN_GEOMETRIC_PRESENTATION_REPRESENTATION (  '', ( #103 ), #18 ) ;
#164 = PRESENTATION_LAYER_ASSIGNMENT (  '', '', ( #24 ) ) ;
#165 = DIRECTION ( 'NONE',  ( 0.0000000000000000000, 1.000000000000000000, 0.0000000000000000000 ) ) ;
#166 = EDGE_LOOP ( 'NONE', ( #3, #102 ) ) ;
#167 = DIRECTION ( 'NONE',  ( 0.0000000000000000000, 1.000000000000000000, 0.0000000000000000000 ) ) ;
#168 = DIRECTION ( 'NONE',  ( 7.888609052210119800E-031, -1.224646799147350000E-016, -1.000000000000000000 ) ) ;
#169 =( NAMED_UNIT ( * ) SI_UNIT ( $, .STERADIAN. ) SOLID_ANGLE_UNIT ( ) );
#170 = COLOUR_RGB ( '',0.7529411764705882200, 0.7529411764705882200, 0.8117647058823529400 ) ;
ENDSEC;
END-ISO-10303-21;
