ISO-10303-21;
HEADER;
FILE_DESCRIPTION (( 'STEP AP214' ),
    '1' );
FILE_NAME ('7250737',
    '2019-02-01T14:21:03',
    ( '' ),
    ('JUGARD+KÜNSTNER GmbH'),
    'SwSTEP 2.0',
    'SolidWorks 2017',
    '' );
FILE_SCHEMA (( 'AUTOMOTIVE_DESIGN' ));
ENDSEC;

DATA;
#1 = DIRECTION ( 'NONE',  ( 0.0000000000000000000, -1.000000000000000000, 1.003647692833547100E-016 ) ) ;
#2 = ADVANCED_FACE ( 'NONE', ( #4 ), #214, .T. ) ;
#3 = AXIS2_PLACEMENT_3D ( 'NONE', #28, #127, #1 ) ;
#4 = FACE_OUTER_BOUND ( 'NONE', #18, .T. ) ;
#5 = DIRECTION ( 'NONE',  ( 0.0000000000000000000, -5.421010862452995600E-017, -1.000000000000000000 ) ) ;
#6 = ORIENTED_EDGE ( 'NONE', *, *, #220, .T. ) ;
#7 = ADVANCED_FACE ( 'NONE', ( #99 ), #143, .T. ) ;
#8 = CARTESIAN_POINT ( 'NONE',  ( 0.0000000000000000000, 5.568356532879355100E-017, 0.9093816334238179500 ) ) ;
#9 = DIRECTION ( 'NONE',  ( 0.0000000000000000000, 1.000000000000000000, -6.123233995736769700E-017 ) ) ;
#10 = CIRCLE ( 'NONE', #268, 2.160523419235005300 ) ;
#11 = CARTESIAN_POINT ( 'NONE',  ( 3.000000000000000000, 0.0000000000000000000, 0.0000000000000000000 ) ) ;
#12 = CARTESIAN_POINT ( 'NONE',  ( 0.0000000000000000000, 3.000000000000000000, -1.836970198721030900E-016 ) ) ;
#13 = DIRECTION ( 'NONE',  ( -0.0000000000000000000, 6.123233995736769700E-017, 1.000000000000000000 ) ) ;
#14 = DIRECTION ( 'NONE',  ( 0.0000000000000000000, -1.000000000000000000, 1.003647692833547100E-016 ) ) ;
#15 = EDGE_LOOP ( 'NONE', ( #199, #170 ) ) ;
#16 = PRESENTATION_LAYER_ASSIGNMENT (  '', '', ( #114 ) ) ;
#17 = CIRCLE ( 'NONE', #98, 3.000000000000000000 ) ;
#18 = EDGE_LOOP ( 'NONE', ( #95, #116, #264, #100 ) ) ;
#19 = AXIS2_PLACEMENT_3D ( 'NONE', #84, #32, #89 ) ;
#20 = EDGE_CURVE ( 'NONE', #225, #83, #344, .T. ) ;
#21 = SURFACE_STYLE_USAGE ( .BOTH. , #239 ) ;
#22 = DIRECTION ( 'NONE',  ( 0.0000000000000000000, -1.000000000000000000, 6.123233995736769700E-017 ) ) ;
#23 = CYLINDRICAL_SURFACE ( 'NONE', #138, 6.250000000000000000 ) ;
#24 = ORIENTED_EDGE ( 'NONE', *, *, #315, .F. ) ;
#25 = FACE_OUTER_BOUND ( 'NONE', #145, .T. ) ;
#26 = EDGE_LOOP ( 'NONE', ( #52, #226, #202, #335 ) ) ;
#27 = AXIS2_PLACEMENT_3D ( 'NONE', #183, #263, #97 ) ;
#28 = CARTESIAN_POINT ( 'NONE',  ( 0.0000000000000000000, -2.176314017960393000E-032, 1.852064113791129600 ) ) ;
#29 = ADVANCED_FACE ( 'NONE', ( #113 ), #248, .F. ) ;
#30 = VECTOR ( 'NONE', #42, 1000.000000000000000 ) ;
#31 = CARTESIAN_POINT ( 'NONE',  ( 0.0000000000000000000, 7.949757327944412800E-028, 1.852064113847972800 ) ) ;
#32 = DIRECTION ( 'NONE',  ( 0.0000000000000000000, -6.123233995736769700E-017, -1.000000000000000000 ) ) ;
#33 = DIRECTION ( 'NONE',  ( 0.0000000000000000000, -6.123233995736769700E-017, -1.000000000000000000 ) ) ;
#34 = VECTOR ( 'NONE', #187, 1000.000000000000000 ) ;
#35 = MECHANICAL_DESIGN_GEOMETRIC_PRESENTATION_REPRESENTATION (  '', ( #114 ), #206 ) ;
#36 = CIRCLE ( 'NONE', #363, 1.949425148438876900 ) ;
#37 = CARTESIAN_POINT ( 'NONE',  ( 0.0000000000000000000, 5.568356532879355100E-017, 0.9093816334238179500 ) ) ;
#38 = EDGE_LOOP ( 'NONE', ( #47, #339, #281, #154 ) ) ;
#39 = DIRECTION ( 'NONE',  ( 0.0000000000000000000, 1.000000000000000000, -7.228014483236695800E-017 ) ) ;
#40 = EDGE_CURVE ( 'NONE', #272, #203, #253, .T. ) ;
#41 = CARTESIAN_POINT ( 'NONE',  ( 0.0000000000000000000, -1.949425148438876900, 1.400421356976267100 ) ) ;
#42 = DIRECTION ( 'NONE',  ( 0.0000000000000000000, -6.123233995736769700E-017, -1.000000000000000000 ) ) ;
#43 = AXIS2_PLACEMENT_3D ( 'NONE', #245, #188, #44 ) ;
#44 = DIRECTION ( 'NONE',  ( 0.0000000000000000000, 1.000000000000000000, -6.938893903907228400E-017 ) ) ;
#45 = DIRECTION ( 'NONE',  ( 0.0000000000000000000, 6.123233995736769700E-017, 1.000000000000000000 ) ) ;
#46 = LINE ( 'NONE', #12, #30 ) ;
#47 = ORIENTED_EDGE ( 'NONE', *, *, #358, .F. ) ;
#48 = AXIS2_PLACEMENT_3D ( 'NONE', #92, #159, #9 ) ;
#49 = CARTESIAN_POINT ( 'NONE',  ( 0.0000000000000000000, 6.250000000000000000, -3.827021247335481300E-016 ) ) ;
#50 = APPLICATION_CONTEXT ( 'automotive_design' ) ;
#51 = LINE ( 'NONE', #255, #82 ) ;
#52 = ORIENTED_EDGE ( 'NONE', *, *, #75, .F. ) ;
#53 = DIRECTION ( 'NONE',  ( 0.0000000000000000000, 0.9059280467321907400, -0.4234316640781575200 ) ) ;
#54 = DIRECTION ( 'NONE',  ( 0.0000000000000000000, -6.123233995736769700E-017, -1.000000000000000000 ) ) ;
#55 = ORIENTED_EDGE ( 'NONE', *, *, #220, .F. ) ;
#56 = ORIENTED_EDGE ( 'NONE', *, *, #274, .F. ) ;
#57 = CARTESIAN_POINT ( 'NONE',  ( 0.0000000000000000000, -2.938735877069527900E-033, 0.9093816334200257600 ) ) ;
#58 = DIRECTION ( 'NONE',  ( 0.0000000000000000000, -6.123233995736769700E-017, -1.000000000000000000 ) ) ;
#59 = AXIS2_PLACEMENT_3D ( 'NONE', #37, #292, #134 ) ;
#60 = DIRECTION ( 'NONE',  ( 0.0000000000000000000, -6.489004713298051300E-017, -1.000000000000000000 ) ) ;
#61 = VECTOR ( 'NONE', #334, 1000.000000000000100 ) ;
#62 = CONICAL_SURFACE ( 'NONE', #3, 2.160523419178161900, 0.4372299911396153000 ) ;
#63 =( NAMED_UNIT ( * ) PLANE_ANGLE_UNIT ( ) SI_UNIT ( $, .RADIAN. ) );
#64 = DIRECTION ( 'NONE',  ( 0.0000000000000000000, -5.421010862452995600E-017, -1.000000000000000000 ) ) ;
#65 = CARTESIAN_POINT ( 'NONE',  ( 4.092352460492814800E-016, -3.341659377497308000, 1.299999999991871700 ) ) ;
#66 = AXIS2_PLACEMENT_3D ( 'NONE', #181, #45, #22 ) ;
#67 = DIRECTION ( 'NONE',  ( 0.0000000000000000000, -6.123233995736769700E-017, -1.000000000000000000 ) ) ;
#68 = ORIENTED_EDGE ( 'NONE', *, *, #242, .F. ) ;
#69 = ORIENTED_EDGE ( 'NONE', *, *, #216, .F. ) ;
#70 = CARTESIAN_POINT ( 'NONE',  ( 0.0000000000000000000, 7.949757327944412800E-028, 1.852064113847972800 ) ) ;
#71 = CARTESIAN_POINT ( 'NONE',  ( 0.0000000000000000000, 0.0000000000000000000, 0.0000000000000000000 ) ) ;
#72 = CIRCLE ( 'NONE', #126, 1.949425148438876900 ) ;
#73 = CIRCLE ( 'NONE', #308, 3.000000000000000000 ) ;
#74 = VECTOR ( 'NONE', #152, 1000.000000000000000 ) ;
#75 = EDGE_CURVE ( 'NONE', #130, #326, #104, .T. ) ;
#76 = ORIENTED_EDGE ( 'NONE', *, *, #75, .T. ) ;
#77 = ORIENTED_EDGE ( 'NONE', *, *, #314, .T. ) ;
#78 = CARTESIAN_POINT ( 'NONE',  ( 0.0000000000000000000, -9.876409496060793900E-029, 1.400421356976266900 ) ) ;
#79 =( NAMED_UNIT ( * ) PLANE_ANGLE_UNIT ( ) SI_UNIT ( $, .RADIAN. ) );
#80 = CYLINDRICAL_SURFACE ( 'NONE', #48, 6.250000000000000000 ) ;
#81 = EDGE_CURVE ( 'NONE', #225, #210, #36, .T. ) ;
#82 = VECTOR ( 'NONE', #198, 1000.000000000000300 ) ;
#83 = VERTEX_POINT ( 'NONE', #118 ) ;
#84 = CARTESIAN_POINT ( 'NONE',  ( 0.0000000000000000000, 7.960204194457801600E-017, 1.300000000000000300 ) ) ;
#85 = CONICAL_SURFACE ( 'NONE', #228, 2.160523419178161900, 0.4372299911396153000 ) ;
#86 = VECTOR ( 'NONE', #265, 1000.000000000000000 ) ;
#87 = CARTESIAN_POINT ( 'NONE',  ( 3.673940397442059900E-016, -3.000000000000000000, 1.836970198721030900E-016 ) ) ;
#88 = EDGE_LOOP ( 'NONE', ( #155, #241, #68, #276 ) ) ;
#89 = DIRECTION ( 'NONE',  ( 0.0000000000000000000, 1.000000000000000000, -6.938893903907228400E-017 ) ) ;
#90 = CARTESIAN_POINT ( 'NONE',  ( 3.369115275170930000E-016, -2.160523419235005300, 1.852064113847973000 ) ) ;
#91 = ADVANCED_FACE ( 'NONE', ( #25 ), #313, .F. ) ;
#92 = CARTESIAN_POINT ( 'NONE',  ( 0.0000000000000000000, 0.0000000000000000000, 0.0000000000000000000 ) ) ;
#93 = FACE_BOUND ( 'NONE', #15, .T. ) ;
#94 = ORIENTED_EDGE ( 'NONE', *, *, #262, .F. ) ;
#95 = ORIENTED_EDGE ( 'NONE', *, *, #201, .T. ) ;
#96 = EDGE_CURVE ( 'NONE', #258, #203, #51, .T. ) ;
#97 = DIRECTION ( 'NONE',  ( 0.0000000000000000000, 1.000000000000000000, -6.123233995736769700E-017 ) ) ;
#98 = AXIS2_PLACEMENT_3D ( 'NONE', #8, #67, #39 ) ;
#99 = FACE_OUTER_BOUND ( 'NONE', #123, .T. ) ;
#100 = ORIENTED_EDGE ( 'NONE', *, *, #96, .F. ) ;
#101 = AXIS2_PLACEMENT_3D ( 'NONE', #31, #58, #236 ) ;
#102 = ADVANCED_BREP_SHAPE_REPRESENTATION ( '7250737_CNAJF00', ( #180, #303 ), #147 ) ;
#103 = EDGE_CURVE ( 'NONE', #144, #246, #233, .T. ) ;
#104 = LINE ( 'NONE', #87, #74 ) ;
#105 = VERTEX_POINT ( 'NONE', #227 ) ;
#106 = AXIS2_PLACEMENT_3D ( 'NONE', #135, #13, #132 ) ;
#107 = DIRECTION ( 'NONE',  ( 0.0000000000000000000, 1.000000000000000000, 0.0000000000000000000 ) ) ;
#108 = DIRECTION ( 'NONE',  ( -0.0000000000000000000, 1.003647692833547300E-016, 1.000000000000000000 ) ) ;
#109 = SURFACE_STYLE_FILL_AREA ( #121 ) ;
#110 = ORIENTED_EDGE ( 'NONE', *, *, #282, .F. ) ;
#111 = FILL_AREA_STYLE_COLOUR ( '', #280 ) ;
#112 = CARTESIAN_POINT ( 'NONE',  ( 0.0000000000000000000, 3.124342121652657000E-048, 1.300000000071577500 ) ) ;
#113 = FACE_OUTER_BOUND ( 'NONE', #222, .T. ) ;
#114 = STYLED_ITEM ( 'NONE', ( #297 ), #102 ) ;
#115 = VERTEX_POINT ( 'NONE', #90 ) ;
#116 = ORIENTED_EDGE ( 'NONE', *, *, #232, .T. ) ;
#117 = UNCERTAINTY_MEASURE_WITH_UNIT (LENGTH_MEASURE( 1.000000000000000100E-005 ), #307, 'distance_accuracy_value', 'NONE');
#118 = CARTESIAN_POINT ( 'NONE',  ( 0.0000000000000000000, 2.999999999977789300, 0.9093816334238177300 ) ) ;
#119 = AXIS2_PLACEMENT_3D ( 'NONE', #112, #169, #223 ) ;
#120 =( NAMED_UNIT ( * ) SI_UNIT ( $, .STERADIAN. ) SOLID_ANGLE_UNIT ( ) );
#121 = FILL_AREA_STYLE ('',( #200 ) ) ;
#122 = EDGE_LOOP ( 'NONE', ( #110, #212, #234, #364 ) ) ;
#123 = EDGE_LOOP ( 'NONE', ( #250, #305, #160, #191 ) ) ;
#124 = CARTESIAN_POINT ( 'NONE',  ( 0.0000000000000000000, 3.000000000000000000, -1.836970198721030900E-016 ) ) ;
#125 = CARTESIAN_POINT ( 'NONE',  ( 3.673940397414859900E-016, -2.999999999977789300, 0.9093816334238181700 ) ) ;
#126 = AXIS2_PLACEMENT_3D ( 'NONE', #78, #298, #107 ) ;
#127 = DIRECTION ( 'NONE',  ( -0.0000000000000000000, 1.003647692833547300E-016, 1.000000000000000000 ) ) ;
#128 = CIRCLE ( 'NONE', #328, 3.341659377497308000 ) ;
#129 = DIRECTION ( 'NONE',  ( 0.0000000000000000000, -1.000000000000000000, 2.007295385614282200E-016 ) ) ;
#130 = VERTEX_POINT ( 'NONE', #125 ) ;
#131 = ORIENTED_EDGE ( 'NONE', *, *, #237, .T. ) ;
#132 = DIRECTION ( 'NONE',  ( 0.0000000000000000000, 1.000000000000000000, -6.123233995736769700E-017 ) ) ;
#133 = PLANE ( 'NONE',  #341 ) ;
#134 = DIRECTION ( 'NONE',  ( 0.0000000000000000000, 1.000000000000000000, -7.228014483236695800E-017 ) ) ;
#135 = CARTESIAN_POINT ( 'NONE',  ( 0.0000000000000000000, -8.182981867721032400E-065, -1.336382355046097800E-048 ) ) ;
#136 = DIRECTION ( 'NONE',  ( 0.0000000000000000000, 0.0000000000000000000, 1.000000000000000000 ) ) ;
#137 = FACE_OUTER_BOUND ( 'NONE', #88, .T. ) ;
#138 = AXIS2_PLACEMENT_3D ( 'NONE', #156, #33, #173 ) ;
#139 = EDGE_LOOP ( 'NONE', ( #283, #24 ) ) ;
#140 = CARTESIAN_POINT ( 'NONE',  ( 2.645878089779431600E-016, 2.160523419178161900, 1.852064113791129300 ) ) ;
#141 = PRODUCT_CONTEXT ( 'NONE', #266, 'mechanical' ) ;
#142 = DIRECTION ( 'NONE',  ( 0.0000000000000000000, -6.489004713298051300E-017, -1.000000000000000000 ) ) ;
#143 = CONICAL_SURFACE ( 'NONE', #119, 3.341659377326777800, 1.133566335620313600 ) ;
#144 = VERTEX_POINT ( 'NONE', #256 ) ;
#145 = EDGE_LOOP ( 'NONE', ( #190, #362, #6, #289 ) ) ;
#146 = DIRECTION ( 'NONE',  ( 0.0000000000000000000, -6.123233995736769700E-017, -1.000000000000000000 ) ) ;
#147 =( GEOMETRIC_REPRESENTATION_CONTEXT ( 3 ) GLOBAL_UNCERTAINTY_ASSIGNED_CONTEXT ( ( #302 ) ) GLOBAL_UNIT_ASSIGNED_CONTEXT ( ( #359, #79, #194 ) ) REPRESENTATION_CONTEXT ( 'NONE', 'WORKASPACE' ) );
#148 = PRODUCT_DEFINITION_SHAPE ( 'NONE', 'NONE',  #327 ) ;
#149 = CARTESIAN_POINT ( 'NONE',  ( 0.0000000000000000000, 3.341659377497308000, 1.299999999991871200 ) ) ;
#150 = ORIENTED_EDGE ( 'NONE', *, *, #290, .T. ) ;
#151 = CARTESIAN_POINT ( 'NONE',  ( 0.0000000000000000000, -8.182981867721032400E-065, -1.336382355046097800E-048 ) ) ;
#152 = DIRECTION ( 'NONE',  ( 0.0000000000000000000, -6.123233995736769700E-017, -1.000000000000000000 ) ) ;
#153 = COLOUR_RGB ( '',1.000000000000000000, 1.000000000000000000, 0.5999999999999999800 ) ;
#154 = ORIENTED_EDGE ( 'NONE', *, *, #201, .F. ) ;
#155 = ORIENTED_EDGE ( 'NONE', *, *, #103, .T. ) ;
#156 = CARTESIAN_POINT ( 'NONE',  ( 0.0000000000000000000, 0.0000000000000000000, 0.0000000000000000000 ) ) ;
#157 = ADVANCED_FACE ( 'NONE', ( #299 ), #62, .F. ) ;
#158 = FACE_OUTER_BOUND ( 'NONE', #26, .T. ) ;
#159 = DIRECTION ( 'NONE',  ( 0.0000000000000000000, -6.123233995736769700E-017, -1.000000000000000000 ) ) ;
#160 = ORIENTED_EDGE ( 'NONE', *, *, #96, .T. ) ;
#161 = CARTESIAN_POINT ( 'NONE',  ( 7.654042494670957600E-016, -6.250000000000000000, 1.300000000000000500 ) ) ;
#162 = DIRECTION ( 'NONE',  ( 0.0000000000000000000, 1.000000000000000000, -6.123233995736769700E-017 ) ) ;
#163 =( NAMED_UNIT ( * ) PLANE_ANGLE_UNIT ( ) SI_UNIT ( $, .RADIAN. ) );
#164 = PRESENTATION_STYLE_ASSIGNMENT (( #229 ) ) ;
#165 = VERTEX_POINT ( 'NONE', #124 ) ;
#166 = EDGE_CURVE ( 'NONE', #105, #356, #311, .T. ) ;
#167 = FACE_OUTER_BOUND ( 'NONE', #357, .T. ) ;
#168 = ORIENTED_EDGE ( 'NONE', *, *, #81, .F. ) ;
#169 = DIRECTION ( 'NONE',  ( 0.0000000000000000000, -6.489004713298051300E-017, -1.000000000000000000 ) ) ;
#170 = ORIENTED_EDGE ( 'NONE', *, *, #271, .T. ) ;
#171 = DIRECTION ( 'NONE',  ( -0.0000000000000000000, 6.123233995736769700E-017, 1.000000000000000000 ) ) ;
#172 = VECTOR ( 'NONE', #175, 1000.000000000000200 ) ;
#173 = DIRECTION ( 'NONE',  ( 0.0000000000000000000, 1.000000000000000000, -6.123233995736769700E-017 ) ) ;
#174 = ADVANCED_FACE ( 'NONE', ( #137 ), #23, .T. ) ;
#175 = DIRECTION ( 'NONE',  ( 0.0000000000000000000, -0.4234316640425139200, 0.9059280467488505200 ) ) ;
#176 = FACE_OUTER_BOUND ( 'NONE', #270, .T. ) ;
#177 = ORIENTED_EDGE ( 'NONE', *, *, #185, .F. ) ;
#178 = PRODUCT_DEFINITION_FORMATION_WITH_SPECIFIED_SOURCE ( 'ANY', '', #293, .NOT_KNOWN. ) ;
#179 = CARTESIAN_POINT ( 'NONE',  ( 3.673940397442059900E-016, -3.000000000000000000, 1.836970198721030900E-016 ) ) ;
#180 = MANIFOLD_SOLID_BREP ( 'Importiert1', #215 ) ;
#181 = CARTESIAN_POINT ( 'NONE',  ( 6.250000000000000000, 0.0000000000000000000, 1.300000000000000300 ) ) ;
#182 =( GEOMETRIC_REPRESENTATION_CONTEXT ( 3 ) GLOBAL_UNCERTAINTY_ASSIGNED_CONTEXT ( ( #186 ) ) GLOBAL_UNIT_ASSIGNED_CONTEXT ( ( #254, #63, #120 ) ) REPRESENTATION_CONTEXT ( 'NONE', 'WORKASPACE' ) );
#183 = CARTESIAN_POINT ( 'NONE',  ( 0.0000000000000000000, 0.0000000000000000000, 0.0000000000000000000 ) ) ;
#184 = CARTESIAN_POINT ( 'NONE',  ( 0.0000000000000000000, -2.160523419178161900, 1.852064113791129800 ) ) ;
#185 = EDGE_CURVE ( 'NONE', #165, #326, #73, .T. ) ;
#186 = UNCERTAINTY_MEASURE_WITH_UNIT (LENGTH_MEASURE( 1.000000000000000100E-005 ), #254, 'distance_accuracy_value', 'NONE');
#187 = DIRECTION ( 'NONE',  ( 0.0000000000000000000, -6.123233995736769700E-017, -1.000000000000000000 ) ) ;
#188 = DIRECTION ( 'NONE',  ( 0.0000000000000000000, -6.123233995736769700E-017, -1.000000000000000000 ) ) ;
#189 = FACE_BOUND ( 'NONE', #343, .T. ) ;
#190 = ORIENTED_EDGE ( 'NONE', *, *, #314, .F. ) ;
#191 = ORIENTED_EDGE ( 'NONE', *, *, #40, .F. ) ;
#192 = EDGE_CURVE ( 'NONE', #115, #258, #361, .T. ) ;
#193 = ORIENTED_EDGE ( 'NONE', *, *, #40, .T. ) ;
#194 =( NAMED_UNIT ( * ) SI_UNIT ( $, .STERADIAN. ) SOLID_ANGLE_UNIT ( ) );
#195 = AXIS2_PLACEMENT_3D ( 'NONE', #207, #322, #162 ) ;
#196 = CARTESIAN_POINT ( 'NONE',  ( 0.0000000000000000000, 2.999999999985902800, 0.9093816334200255400 ) ) ;
#197 = PRESENTATION_LAYER_ASSIGNMENT (  '', '', ( #329 ) ) ;
#198 = DIRECTION ( 'NONE',  ( 0.0000000000000000000, 0.9059280467340440300, -0.4234316640741923600 ) ) ;
#199 = ORIENTED_EDGE ( 'NONE', *, *, #185, .T. ) ;
#200 = FILL_AREA_STYLE_COLOUR ( '', #153 ) ;
#201 = EDGE_CURVE ( 'NONE', #258, #115, #10, .T. ) ;
#202 = ORIENTED_EDGE ( 'NONE', *, *, #216, .T. ) ;
#203 = VERTEX_POINT ( 'NONE', #149 ) ;
#204 = ORIENTED_EDGE ( 'NONE', *, *, #192, .F. ) ;
#205 = DIRECTION ( 'NONE',  ( 0.0000000000000000000, 1.000000000000000000, -6.123233995736769700E-017 ) ) ;
#206 =( GEOMETRIC_REPRESENTATION_CONTEXT ( 3 ) GLOBAL_UNCERTAINTY_ASSIGNED_CONTEXT ( ( #117 ) ) GLOBAL_UNIT_ASSIGNED_CONTEXT ( ( #307, #163, #309 ) ) REPRESENTATION_CONTEXT ( 'NONE', 'WORKASPACE' ) );
#207 = CARTESIAN_POINT ( 'NONE',  ( 0.0000000000000000000, -1.636596373544206500E-064, -2.672764710092195600E-048 ) ) ;
#208 = CONICAL_SURFACE ( 'NONE', #331, 2.999999999985902800, 1.133566335615936700 ) ;
#209 = AXIS2_PLACEMENT_3D ( 'NONE', #316, #252, #347 ) ;
#210 = VERTEX_POINT ( 'NONE', #41 ) ;
#211 = DIRECTION ( 'NONE',  ( 0.0000000000000000000, -6.123233995736769700E-017, -1.000000000000000000 ) ) ;
#212 = ORIENTED_EDGE ( 'NONE', *, *, #315, .T. ) ;
#213 = CARTESIAN_POINT ( 'NONE',  ( 3.673940397424795600E-016, -2.999999999985902800, 0.9093816334200259800 ) ) ;
#214 = CONICAL_SURFACE ( 'NONE', #296, 3.341659377326777800, 1.133566335620313600 ) ;
#215 = CLOSED_SHELL ( 'NONE', ( #29, #174, #91, #349, #2, #230, #257, #260, #279, #287, #157, #7 ) ) ;
#216 = EDGE_CURVE ( 'NONE', #83, #165, #46, .T. ) ;
#217 = CIRCLE ( 'NONE', #43, 6.250000000000000000 ) ;
#218 = APPLICATION_PROTOCOL_DEFINITION ( 'draft international standard', 'automotive_design', 1998, #266 ) ;
#219 = DIRECTION ( 'NONE',  ( 0.0000000000000000000, -6.489004713298051300E-017, -1.000000000000000000 ) ) ;
#220 = EDGE_CURVE ( 'NONE', #130, #83, #17, .T. ) ;
#221 = DIRECTION ( 'NONE',  ( 1.000000000000000000, 0.0000000000000000000, 0.0000000000000000000 ) ) ;
#222 = EDGE_LOOP ( 'NONE', ( #55, #76, #177, #69 ) ) ;
#223 = DIRECTION ( 'NONE',  ( 0.0000000000000000000, 1.000000000000000000, -6.489004713298050100E-017 ) ) ;
#224 = VECTOR ( 'NONE', #353, 1000.000000000000200 ) ;
#225 = VERTEX_POINT ( 'NONE', #324 ) ;
#226 = ORIENTED_EDGE ( 'NONE', *, *, #237, .F. ) ;
#227 = CARTESIAN_POINT ( 'NONE',  ( 7.654042494670957600E-016, -6.250000000000000000, 3.827021247335481300E-016 ) ) ;
#228 = AXIS2_PLACEMENT_3D ( 'NONE', #273, #108, #14 ) ;
#229 = SURFACE_STYLE_USAGE ( .BOTH. , #342 ) ;
#230 = ADVANCED_FACE ( 'NONE', ( #93, #176 ), #133, .T. ) ;
#231 = DIRECTION ( 'NONE',  ( 1.109441882688391200E-016, -0.9059280467321907400, -0.4234316640781574100 ) ) ;
#232 = EDGE_CURVE ( 'NONE', #115, #272, #238, .T. ) ;
#233 = CIRCLE ( 'NONE', #19, 6.250000000000000000 ) ;
#234 = ORIENTED_EDGE ( 'NONE', *, *, #337, .T. ) ;
#235 = DIRECTION ( 'NONE',  ( 0.0000000000000000000, -6.123233995736769700E-017, -1.000000000000000000 ) ) ;
#236 = DIRECTION ( 'NONE',  ( 0.0000000000000000000, -1.000000000000000000, 2.007295385614282200E-016 ) ) ;
#237 = EDGE_CURVE ( 'NONE', #83, #130, #338, .T. ) ;
#238 = LINE ( 'NONE', #320, #224 ) ;
#239 = SURFACE_SIDE_STYLE ('',( #267 ) ) ;
#240 = VECTOR ( 'NONE', #53, 1000.000000000000000 ) ;
#241 = ORIENTED_EDGE ( 'NONE', *, *, #282, .T. ) ;
#242 = EDGE_CURVE ( 'NONE', #356, #105, #325, .T. ) ;
#243 = CARTESIAN_POINT ( 'NONE',  ( 0.0000000000000000000, 6.250000000000000000, -3.827021247335481300E-016 ) ) ;
#244 = SHAPE_DEFINITION_REPRESENTATION ( #148, #102 ) ;
#245 = CARTESIAN_POINT ( 'NONE',  ( 0.0000000000000000000, 7.960204194457801600E-017, 1.300000000000000300 ) ) ;
#246 = VERTEX_POINT ( 'NONE', #161 ) ;
#247 = CARTESIAN_POINT ( 'NONE',  ( 0.0000000000000000000, -5.172126772000230200E-027, 1.299999999991871400 ) ) ;
#248 = CYLINDRICAL_SURFACE ( 'NONE', #323, 3.000000000000000000 ) ;
#249 = ORIENTED_EDGE ( 'NONE', *, *, #166, .T. ) ;
#250 = ORIENTED_EDGE ( 'NONE', *, *, #232, .F. ) ;
#251 = DIRECTION ( 'NONE',  ( 0.0000000000000000000, 1.000000000000000000, -6.123233995736769700E-017 ) ) ;
#252 = DIRECTION ( 'NONE',  ( 0.0000000000000000000, -6.123233995736769700E-017, -1.000000000000000000 ) ) ;
#253 = CIRCLE ( 'NONE', #318, 3.341659377497308000 ) ;
#254 =( LENGTH_UNIT ( ) NAMED_UNIT ( * ) SI_UNIT ( .MILLI., .METRE. ) );
#255 = CARTESIAN_POINT ( 'NONE',  ( 0.0000000000000000000, 3.341659377326777800, 1.300000000071577200 ) ) ;
#256 = CARTESIAN_POINT ( 'NONE',  ( 0.0000000000000000000, 6.250000000000000000, 1.299999999999999800 ) ) ;
#257 = ADVANCED_FACE ( 'NONE', ( #158 ), #355, .F. ) ;
#258 = VERTEX_POINT ( 'NONE', #261 ) ;
#259 = ORIENTED_EDGE ( 'NONE', *, *, #20, .T. ) ;
#260 = ADVANCED_FACE ( 'NONE', ( #275 ), #80, .T. ) ;
#261 = CARTESIAN_POINT ( 'NONE',  ( 0.0000000000000000000, 2.160523419235005300, 1.852064113847972500 ) ) ;
#262 = EDGE_CURVE ( 'NONE', #210, #115, #333, .T. ) ;
#263 = DIRECTION ( 'NONE',  ( 0.0000000000000000000, -6.123233995736769700E-017, -1.000000000000000000 ) ) ;
#264 = ORIENTED_EDGE ( 'NONE', *, *, #290, .F. ) ;
#265 = DIRECTION ( 'NONE',  ( 0.0000000000000000000, -6.123233995736769700E-017, -1.000000000000000000 ) ) ;
#266 = APPLICATION_CONTEXT ( 'automotive_design' ) ;
#267 = SURFACE_STYLE_FILL_AREA ( #330 ) ;
#268 = AXIS2_PLACEMENT_3D ( 'NONE', #70, #211, #129 ) ;
#269 = VECTOR ( 'NONE', #231, 1000.000000000000200 ) ;
#270 = EDGE_LOOP ( 'NONE', ( #300, #249 ) ) ;
#271 = EDGE_CURVE ( 'NONE', #326, #165, #317, .T. ) ;
#272 = VERTEX_POINT ( 'NONE', #65 ) ;
#273 = CARTESIAN_POINT ( 'NONE',  ( 0.0000000000000000000, -2.176314017960393000E-032, 1.852064113791129600 ) ) ;
#274 = EDGE_CURVE ( 'NONE', #210, #130, #348, .T. ) ;
#275 = FACE_OUTER_BOUND ( 'NONE', #122, .T. ) ;
#276 = ORIENTED_EDGE ( 'NONE', *, *, #337, .F. ) ;
#277 = PRODUCT_RELATED_PRODUCT_CATEGORY ( 'part', '', ( #293 ) ) ;
#278 = MECHANICAL_DESIGN_GEOMETRIC_PRESENTATION_REPRESENTATION (  '', ( #329 ), #182 ) ;
#279 = ADVANCED_FACE ( 'NONE', ( #167 ), #208, .F. ) ;
#280 = COLOUR_RGB ( '',0.7529411764705882200, 0.7529411764705882200, 0.7529411764705882200 ) ;
#281 = ORIENTED_EDGE ( 'NONE', *, *, #262, .T. ) ;
#282 = EDGE_CURVE ( 'NONE', #246, #105, #304, .T. ) ;
#283 = ORIENTED_EDGE ( 'NONE', *, *, #103, .F. ) ;
#284 = DIRECTION ( 'NONE',  ( 0.0000000000000000000, 1.000000000000000000, -6.489004712966906000E-017 ) ) ;
#285 = DIRECTION ( 'NONE',  ( 0.0000000000000000000, 1.000000000000000000, 0.0000000000000000000 ) ) ;
#286 = DIRECTION ( 'NONE',  ( 0.0000000000000000000, 1.000000000000000000, -7.228014483270661200E-017 ) ) ;
#287 = ADVANCED_FACE ( 'NONE', ( #291, #189 ), #351, .T. ) ;
#288 = ORIENTED_EDGE ( 'NONE', *, *, #358, .T. ) ;
#289 = ORIENTED_EDGE ( 'NONE', *, *, #20, .F. ) ;
#290 = EDGE_CURVE ( 'NONE', #203, #272, #128, .T. ) ;
#291 = FACE_OUTER_BOUND ( 'NONE', #139, .T. ) ;
#292 = DIRECTION ( 'NONE',  ( 0.0000000000000000000, -6.123233995736769700E-017, -1.000000000000000000 ) ) ;
#293 = PRODUCT ( '7250737_CNAJF00', '7250737_CNAJF00', '', ( #141 ) ) ;
#294 = CARTESIAN_POINT ( 'NONE',  ( 0.0000000000000000000, -2.938735877069527900E-033, 0.9093816334200257600 ) ) ;
#295 = DIRECTION ( 'NONE',  ( 0.0000000000000000000, 1.000000000000000000, -6.489004712966906000E-017 ) ) ;
#296 = AXIS2_PLACEMENT_3D ( 'NONE', #340, #142, #310 ) ;
#297 = PRESENTATION_STYLE_ASSIGNMENT (( #21 ) ) ;
#298 = DIRECTION ( 'NONE',  ( 0.0000000000000000000, -6.123233995736769700E-017, -1.000000000000000000 ) ) ;
#299 = FACE_OUTER_BOUND ( 'NONE', #38, .T. ) ;
#300 = ORIENTED_EDGE ( 'NONE', *, *, #242, .T. ) ;
#301 = EDGE_LOOP ( 'NONE', ( #77, #288, #204, #94 ) ) ;
#302 = UNCERTAINTY_MEASURE_WITH_UNIT (LENGTH_MEASURE( 1.000000000000000100E-005 ), #359, 'distance_accuracy_value', 'NONE');
#303 = AXIS2_PLACEMENT_3D ( 'NONE', #71, #136, #221 ) ;
#304 = LINE ( 'NONE', #350, #86 ) ;
#305 = ORIENTED_EDGE ( 'NONE', *, *, #192, .T. ) ;
#306 = PRODUCT_DEFINITION_CONTEXT ( 'detailed design', #50, 'design' ) ;
#307 =( LENGTH_UNIT ( ) NAMED_UNIT ( * ) SI_UNIT ( .MILLI., .METRE. ) );
#308 = AXIS2_PLACEMENT_3D ( 'NONE', #151, #171, #345 ) ;
#309 =( NAMED_UNIT ( * ) SI_UNIT ( $, .STERADIAN. ) SOLID_ANGLE_UNIT ( ) );
#310 = DIRECTION ( 'NONE',  ( 0.0000000000000000000, 1.000000000000000000, -6.489004713298050100E-017 ) ) ;
#311 = CIRCLE ( 'NONE', #209, 6.250000000000000000 ) ;
#312 = CARTESIAN_POINT ( 'NONE',  ( 0.0000000000000000000, 0.0000000000000000000, 0.0000000000000000000 ) ) ;
#313 = CONICAL_SURFACE ( 'NONE', #354, 2.999999999985902800, 1.133566335615936700 ) ;
#314 = EDGE_CURVE ( 'NONE', #210, #225, #72, .T. ) ;
#315 = EDGE_CURVE ( 'NONE', #246, #144, #217, .T. ) ;
#316 = CARTESIAN_POINT ( 'NONE',  ( 0.0000000000000000000, -1.636596373544206500E-064, -2.672764710092195600E-048 ) ) ;
#317 = CIRCLE ( 'NONE', #106, 3.000000000000000000 ) ;
#318 = AXIS2_PLACEMENT_3D ( 'NONE', #319, #60, #284 ) ;
#319 = CARTESIAN_POINT ( 'NONE',  ( 0.0000000000000000000, -5.172126772000230200E-027, 1.299999999991871400 ) ) ;
#320 = CARTESIAN_POINT ( 'NONE',  ( 4.092352460283975700E-016, -3.341659377326777800, 1.300000000071577700 ) ) ;
#321 = DIRECTION ( 'NONE',  ( 0.0000000000000000000, 1.000000000000000000, -7.228014483270661200E-017 ) ) ;
#322 = DIRECTION ( 'NONE',  ( 0.0000000000000000000, -6.123233995736769700E-017, -1.000000000000000000 ) ) ;
#323 = AXIS2_PLACEMENT_3D ( 'NONE', #312, #146, #251 ) ;
#324 = CARTESIAN_POINT ( 'NONE',  ( 2.516617679012055900E-016, 1.949425148438876900, 1.400421356976266700 ) ) ;
#325 = CIRCLE ( 'NONE', #195, 6.250000000000000000 ) ;
#326 = VERTEX_POINT ( 'NONE', #179 ) ;
#327 = PRODUCT_DEFINITION ( 'UNKNOWN', '', #178, #306 ) ;
#328 = AXIS2_PLACEMENT_3D ( 'NONE', #247, #219, #295 ) ;
#329 = STYLED_ITEM ( 'NONE', ( #164 ), #180 ) ;
#330 = FILL_AREA_STYLE ('',( #111 ) ) ;
#331 = AXIS2_PLACEMENT_3D ( 'NONE', #294, #64, #321 ) ;
#332 = LINE ( 'NONE', #140, #61 ) ;
#333 = LINE ( 'NONE', #184, #172 ) ;
#334 = DIRECTION ( 'NONE',  ( 5.185542320273021000E-017, 0.4234316640425140900, 0.9059280467488504100 ) ) ;
#335 = ORIENTED_EDGE ( 'NONE', *, *, #271, .F. ) ;
#336 = APPLICATION_PROTOCOL_DEFINITION ( 'draft international standard', 'automotive_design', 1998, #50 ) ;
#337 = EDGE_CURVE ( 'NONE', #144, #356, #352, .T. ) ;
#338 = CIRCLE ( 'NONE', #59, 3.000000000000000000 ) ;
#339 = ORIENTED_EDGE ( 'NONE', *, *, #81, .T. ) ;
#340 = CARTESIAN_POINT ( 'NONE',  ( 0.0000000000000000000, 3.124342121652657000E-048, 1.300000000071577500 ) ) ;
#341 = AXIS2_PLACEMENT_3D ( 'NONE', #11, #235, #205 ) ;
#342 = SURFACE_SIDE_STYLE ('',( #109 ) ) ;
#343 = EDGE_LOOP ( 'NONE', ( #150, #193 ) ) ;
#344 = LINE ( 'NONE', #196, #240 ) ;
#345 = DIRECTION ( 'NONE',  ( 0.0000000000000000000, 1.000000000000000000, -6.123233995736769700E-017 ) ) ;
#346 = CARTESIAN_POINT ( 'NONE',  ( 0.0000000000000000000, -9.876409496060793900E-029, 1.400421356976266900 ) ) ;
#347 = DIRECTION ( 'NONE',  ( 0.0000000000000000000, 1.000000000000000000, -6.123233995736769700E-017 ) ) ;
#348 = LINE ( 'NONE', #213, #269 ) ;
#349 = ADVANCED_FACE ( 'NONE', ( #360 ), #85, .F. ) ;
#350 = CARTESIAN_POINT ( 'NONE',  ( 7.654042494670957600E-016, -6.250000000000000000, 3.827021247335481300E-016 ) ) ;
#351 = PLANE ( 'NONE',  #66 ) ;
#352 = LINE ( 'NONE', #243, #34 ) ;
#353 = DIRECTION ( 'NONE',  ( 1.109441882690660900E-016, -0.9059280467340441500, -0.4234316640741923000 ) ) ;
#354 = AXIS2_PLACEMENT_3D ( 'NONE', #57, #5, #286 ) ;
#355 = CYLINDRICAL_SURFACE ( 'NONE', #27, 3.000000000000000000 ) ;
#356 = VERTEX_POINT ( 'NONE', #49 ) ;
#357 = EDGE_LOOP ( 'NONE', ( #56, #168, #259, #131 ) ) ;
#358 = EDGE_CURVE ( 'NONE', #225, #258, #332, .T. ) ;
#359 =( LENGTH_UNIT ( ) NAMED_UNIT ( * ) SI_UNIT ( .MILLI., .METRE. ) );
#360 = FACE_OUTER_BOUND ( 'NONE', #301, .T. ) ;
#361 = CIRCLE ( 'NONE', #101, 2.160523419235005300 ) ;
#362 = ORIENTED_EDGE ( 'NONE', *, *, #274, .T. ) ;
#363 = AXIS2_PLACEMENT_3D ( 'NONE', #346, #54, #285 ) ;
#364 = ORIENTED_EDGE ( 'NONE', *, *, #166, .F. ) ;
ENDSEC;
END-ISO-10303-21;
