ISO-10303-21;
HEADER;
FILE_DESCRIPTION (( 'STEP AP214' ),
    '1' );
FILE_NAME ('7228130',
    '2019-02-04T10:06:06',
    ( '' ),
    ('JUGARD+KÜNSTNER GmbH'),
    'SwSTEP 2.0',
    'SolidWorks 2017',
    '' );
FILE_SCHEMA (( 'AUTOMOTIVE_DESIGN' ));
ENDSEC;

DATA;
#1 = CARTESIAN_POINT ( 'NONE',  ( -3.200000000000000200, 3.500000000000000000, 0.0000000000000000000 ) ) ;
#2 = MANIFOLD_SOLID_BREP ( 'Importiert1', #10 ) ;
#3 = FACE_OUTER_BOUND ( 'NONE', #130, .T. ) ;
#4 = ORIENTED_EDGE ( 'NONE', *, *, #16, .T. ) ;
#5 = DIRECTION ( 'NONE',  ( -1.000000000000000000, 0.0000000000000000000, 0.0000000000000000000 ) ) ;
#6 = EDGE_CURVE ( 'NONE', #197, #90, #287, .T. ) ;
#7 = CARTESIAN_POINT ( 'NONE',  ( -12.40000000000000200, -9.000000000000001800, 3.000000000000000000 ) ) ;
#8 = EDGE_CURVE ( 'NONE', #14, #66, #362, .T. ) ;
#9 = ORIENTED_EDGE ( 'NONE', *, *, #293, .T. ) ;
#10 = CLOSED_SHELL ( 'NONE', ( #263, #63, #70, #331, #232, #289, #205, #294, #178, #93, #119 ) ) ;
#11 = DIRECTION ( 'NONE',  ( 0.0000000000000000000, -1.000000000000000000, 0.0000000000000000000 ) ) ;
#12 = CARTESIAN_POINT ( 'NONE',  ( 12.40000000000000200, -9.000000000000001800, 0.0000000000000000000 ) ) ;
#13 = LINE ( 'NONE', #209, #30 ) ;
#14 = VERTEX_POINT ( 'NONE', #64 ) ;
#15 = DIRECTION ( 'NONE',  ( -0.0000000000000000000, -0.0000000000000000000, 1.000000000000000000 ) ) ;
#16 = EDGE_CURVE ( 'NONE', #242, #147, #182, .T. ) ;
#17 = CARTESIAN_POINT ( 'NONE',  ( -6.700000000000000200, 0.0000000000000000000, 0.0000000000000000000 ) ) ;
#18 = LINE ( 'NONE', #301, #161 ) ;
#19 = ORIENTED_EDGE ( 'NONE', *, *, #44, .F. ) ;
#20 = ORIENTED_EDGE ( 'NONE', *, *, #300, .T. ) ;
#21 = DIRECTION ( 'NONE',  ( -1.000000000000000000, 8.881784197001252300E-016, 0.0000000000000000000 ) ) ;
#22 = CARTESIAN_POINT ( 'NONE',  ( -3.200000000000000200, 0.0000000000000000000, 0.0000000000000000000 ) ) ;
#23 = ORIENTED_EDGE ( 'NONE', *, *, #217, .T. ) ;
#24 = DIRECTION ( 'NONE',  ( -0.0000000000000000000, -0.0000000000000000000, 1.000000000000000000 ) ) ;
#25 = AXIS2_PLACEMENT_3D ( 'NONE', #302, #336, #21 ) ;
#26 = APPLICATION_PROTOCOL_DEFINITION ( 'draft international standard', 'automotive_design', 1998, #346 ) ;
#27 = VECTOR ( 'NONE', #204, 1000.000000000000000 ) ;
#28 = AXIS2_PLACEMENT_3D ( 'NONE', #190, #40, #48 ) ;
#29 = FACE_OUTER_BOUND ( 'NONE', #56, .T. ) ;
#30 = VECTOR ( 'NONE', #295, 1000.000000000000000 ) ;
#31 =( NAMED_UNIT ( * ) SI_UNIT ( $, .STERADIAN. ) SOLID_ANGLE_UNIT ( ) );
#32 = AXIS2_PLACEMENT_3D ( 'NONE', #259, #320, #5 ) ;
#33 = SURFACE_SIDE_STYLE ('',( #176 ) ) ;
#34 =( NAMED_UNIT ( * ) PLANE_ANGLE_UNIT ( ) SI_UNIT ( $, .RADIAN. ) );
#35 = FACE_BOUND ( 'NONE', #341, .T. ) ;
#36 = EDGE_LOOP ( 'NONE', ( #149, #4, #375, #74 ) ) ;
#37 = DIRECTION ( 'NONE',  ( -1.000000000000000000, -0.0000000000000000000, -0.0000000000000000000 ) ) ;
#38 = CARTESIAN_POINT ( 'NONE',  ( 12.40000000000000200, 9.000000000000001800, 3.000000000000000000 ) ) ;
#39 = CARTESIAN_POINT ( 'NONE',  ( -12.40000000000000200, 9.000000000000001800, 2.000000000000000000 ) ) ;
#40 = DIRECTION ( 'NONE',  ( 0.0000000000000000000, 0.0000000000000000000, -1.000000000000000000 ) ) ;
#41 = VECTOR ( 'NONE', #79, 1000.000000000000000 ) ;
#42 = ORIENTED_EDGE ( 'NONE', *, *, #165, .F. ) ;
#43 = DIRECTION ( 'NONE',  ( -1.000000000000000000, 0.0000000000000000000, 0.0000000000000000000 ) ) ;
#44 = EDGE_CURVE ( 'NONE', #229, #197, #175, .T. ) ;
#45 = VERTEX_POINT ( 'NONE', #258 ) ;
#46 = DIRECTION ( 'NONE',  ( 0.0000000000000000000, 0.0000000000000000000, -1.000000000000000000 ) ) ;
#47 = CARTESIAN_POINT ( 'NONE',  ( -3.199999999999999700, -3.499999999999999600, 3.000000000000000000 ) ) ;
#48 = DIRECTION ( 'NONE',  ( -1.000000000000000000, 0.0000000000000000000, 0.0000000000000000000 ) ) ;
#49 = CIRCLE ( 'NONE', #199, 3.500000000000000000 ) ;
#50 = CIRCLE ( 'NONE', #25, 3.500000000000000000 ) ;
#51 = ORIENTED_EDGE ( 'NONE', *, *, #146, .F. ) ;
#52 = AXIS2_PLACEMENT_3D ( 'NONE', #92, #132, #327 ) ;
#53 = FILL_AREA_STYLE_COLOUR ( '', #278 ) ;
#54 = ADVANCED_BREP_SHAPE_REPRESENTATION ( '7228130_CNAJF00', ( #2, #274 ), #359 ) ;
#55 = VECTOR ( 'NONE', #358, 1000.000000000000000 ) ;
#56 = EDGE_LOOP ( 'NONE', ( #20, #313, #144, #226 ) ) ;
#57 = ORIENTED_EDGE ( 'NONE', *, *, #6, .F. ) ;
#58 = ORIENTED_EDGE ( 'NONE', *, *, #44, .T. ) ;
#59 = STYLED_ITEM ( 'NONE', ( #121 ), #54 ) ;
#60 = CARTESIAN_POINT ( 'NONE',  ( -12.40000000000000200, -9.000000000000001800, 3.000000000000000000 ) ) ;
#61 = LINE ( 'NONE', #234, #196 ) ;
#62 = ORIENTED_EDGE ( 'NONE', *, *, #377, .T. ) ;
#63 = ADVANCED_FACE ( 'NONE', ( #35, #261 ), #118, .F. ) ;
#64 = CARTESIAN_POINT ( 'NONE',  ( -3.200000000000000200, 3.500000000000000000, 0.0000000000000000000 ) ) ;
#65 = EDGE_CURVE ( 'NONE', #200, #138, #110, .T. ) ;
#66 = VERTEX_POINT ( 'NONE', #288 ) ;
#67 = ORIENTED_EDGE ( 'NONE', *, *, #109, .T. ) ;
#68 = DIRECTION ( 'NONE',  ( -0.0000000000000000000, -1.000000000000000000, 0.0000000000000000000 ) ) ;
#69 = CARTESIAN_POINT ( 'NONE',  ( 12.40000000000000200, 9.000000000000001800, 0.0000000000000000000 ) ) ;
#70 = ADVANCED_FACE ( 'NONE', ( #279 ), #106, .F. ) ;
#71 = DIRECTION ( 'NONE',  ( 1.000000000000000000, 0.0000000000000000000, 0.0000000000000000000 ) ) ;
#72 = AXIS2_PLACEMENT_3D ( 'NONE', #163, #214, #140 ) ;
#73 = VECTOR ( 'NONE', #137, 1000.000000000000000 ) ;
#74 = ORIENTED_EDGE ( 'NONE', *, *, #128, .T. ) ;
#75 = DIRECTION ( 'NONE',  ( -0.0000000000000000000, -1.000000000000000000, -0.0000000000000000000 ) ) ;
#76 = PLANE ( 'NONE',  #87 ) ;
#77 = ORIENTED_EDGE ( 'NONE', *, *, #307, .F. ) ;
#78 = CARTESIAN_POINT ( 'NONE',  ( 5.100000000000000500, 3.500000000000000000, 2.000000000000000000 ) ) ;
#79 = DIRECTION ( 'NONE',  ( -0.0000000000000000000, 0.0000000000000000000, -1.000000000000000000 ) ) ;
#80 = PRESENTATION_LAYER_ASSIGNMENT (  '', '', ( #59 ) ) ;
#81 = DIRECTION ( 'NONE',  ( -0.0000000000000000000, -0.0000000000000000000, 1.000000000000000000 ) ) ;
#82 = DIRECTION ( 'NONE',  ( 1.000000000000000000, 0.0000000000000000000, 0.0000000000000000000 ) ) ;
#83 = ORIENTED_EDGE ( 'NONE', *, *, #350, .F. ) ;
#84 = APPLICATION_PROTOCOL_DEFINITION ( 'draft international standard', 'automotive_design', 1998, #219 ) ;
#85 = VECTOR ( 'NONE', #68, 1000.000000000000000 ) ;
#86 = ORIENTED_EDGE ( 'NONE', *, *, #280, .F. ) ;
#87 = AXIS2_PLACEMENT_3D ( 'NONE', #105, #369, #101 ) ;
#88 = ORIENTED_EDGE ( 'NONE', *, *, #254, .F. ) ;
#89 = FACE_OUTER_BOUND ( 'NONE', #372, .T. ) ;
#90 = VERTEX_POINT ( 'NONE', #38 ) ;
#91 = PLANE ( 'NONE',  #233 ) ;
#92 = CARTESIAN_POINT ( 'NONE',  ( -3.200000000000000200, 0.0000000000000000000, 0.0000000000000000000 ) ) ;
#93 = ADVANCED_FACE ( 'NONE', ( #3 ), #91, .F. ) ;
#94 = AXIS2_PLACEMENT_3D ( 'NONE', #12, #265, #360 ) ;
#95 = SHAPE_DEFINITION_REPRESENTATION ( #285, #54 ) ;
#96 = FACE_OUTER_BOUND ( 'NONE', #36, .T. ) ;
#97 = ORIENTED_EDGE ( 'NONE', *, *, #321, .T. ) ;
#98 = DIRECTION ( 'NONE',  ( 0.0000000000000000000, -0.0000000000000000000, -1.000000000000000000 ) ) ;
#99 = CARTESIAN_POINT ( 'NONE',  ( -12.40000000000000200, 9.000000000000001800, 0.0000000000000000000 ) ) ;
#100 = DIRECTION ( 'NONE',  ( 0.0000000000000000000, -0.0000000000000000000, -1.000000000000000000 ) ) ;
#101 = DIRECTION ( 'NONE',  ( 0.0000000000000000000, -0.0000000000000000000, 1.000000000000000000 ) ) ;
#102 = ORIENTED_EDGE ( 'NONE', *, *, #293, .F. ) ;
#103 = AXIS2_PLACEMENT_3D ( 'NONE', #243, #271, #100 ) ;
#104 = CARTESIAN_POINT ( 'NONE',  ( -12.40000000000000200, 9.000000000000001800, 0.0000000000000000000 ) ) ;
#105 = CARTESIAN_POINT ( 'NONE',  ( -3.200000000000000200, -3.500000000000000000, 2.000000000000000000 ) ) ;
#106 = CYLINDRICAL_SURFACE ( 'NONE', #32, 3.500000000000000000 ) ;
#107 = ORIENTED_EDGE ( 'NONE', *, *, #6, .T. ) ;
#108 = SURFACE_STYLE_USAGE ( .BOTH. , #145 ) ;
#109 = EDGE_CURVE ( 'NONE', #283, #229, #224, .T. ) ;
#110 = LINE ( 'NONE', #352, #135 ) ;
#111 =( NAMED_UNIT ( * ) SI_UNIT ( $, .STERADIAN. ) SOLID_ANGLE_UNIT ( ) );
#112 = ORIENTED_EDGE ( 'NONE', *, *, #174, .F. ) ;
#113 = CIRCLE ( 'NONE', #339, 3.500000000000000000 ) ;
#114 = VECTOR ( 'NONE', #15, 1000.000000000000000 ) ;
#115 = VERTEX_POINT ( 'NONE', #268 ) ;
#116 = MECHANICAL_DESIGN_GEOMETRIC_PRESENTATION_REPRESENTATION (  '', ( #59 ), #156 ) ;
#117 = CARTESIAN_POINT ( 'NONE',  ( 12.40000000000000200, 9.000000000000001800, 3.000000000000000000 ) ) ;
#118 = PLANE ( 'NONE',  #181 ) ;
#119 = ADVANCED_FACE ( 'NONE', ( #351, #89 ), #290, .T. ) ;
#120 = DIRECTION ( 'NONE',  ( 1.000000000000000000, -0.0000000000000000000, 0.0000000000000000000 ) ) ;
#121 = PRESENTATION_STYLE_ASSIGNMENT (( #108 ) ) ;
#122 = FACE_OUTER_BOUND ( 'NONE', #162, .T. ) ;
#123 = ORIENTED_EDGE ( 'NONE', *, *, #8, .F. ) ;
#124 = EDGE_LOOP ( 'NONE', ( #112, #58, #298, #77 ) ) ;
#125 = FILL_AREA_STYLE_COLOUR ( '', #158 ) ;
#126 = CARTESIAN_POINT ( 'NONE',  ( 5.100000000000000500, -3.500000000000000000, 2.000000000000000000 ) ) ;
#127 = CARTESIAN_POINT ( 'NONE',  ( -12.40000000000000200, -9.000000000000001800, 2.000000000000000000 ) ) ;
#128 = EDGE_CURVE ( 'NONE', #376, #318, #13, .T. ) ;
#129 = CARTESIAN_POINT ( 'NONE',  ( -12.40000000000000200, 9.000000000000001800, 2.000000000000000000 ) ) ;
#130 = EDGE_LOOP ( 'NONE', ( #107, #198, #172, #212 ) ) ;
#131 = ORIENTED_EDGE ( 'NONE', *, *, #300, .F. ) ;
#132 = DIRECTION ( 'NONE',  ( -0.0000000000000000000, -0.0000000000000000000, 1.000000000000000000 ) ) ;
#133 = CARTESIAN_POINT ( 'NONE',  ( -3.200000000000000200, -3.500000000000000000, 0.0000000000000000000 ) ) ;
#134 = CARTESIAN_POINT ( 'NONE',  ( 12.40000000000000200, -9.000000000000001800, 0.0000000000000000000 ) ) ;
#135 = VECTOR ( 'NONE', #317, 1000.000000000000000 ) ;
#136 = ORIENTED_EDGE ( 'NONE', *, *, #146, .T. ) ;
#137 = DIRECTION ( 'NONE',  ( 1.000000000000000000, -0.0000000000000000000, 0.0000000000000000000 ) ) ;
#138 = VERTEX_POINT ( 'NONE', #69 ) ;
#139 = DIRECTION ( 'NONE',  ( -0.0000000000000000000, 0.0000000000000000000, 1.000000000000000000 ) ) ;
#140 = DIRECTION ( 'NONE',  ( -1.000000000000000000, 0.0000000000000000000, 0.0000000000000000000 ) ) ;
#141 = CARTESIAN_POINT ( 'NONE',  ( 12.40000000000000200, -3.499999999999999600, 3.000000000000000000 ) ) ;
#142 = MECHANICAL_DESIGN_GEOMETRIC_PRESENTATION_REPRESENTATION (  '', ( #260 ), #324 ) ;
#143 = VECTOR ( 'NONE', #231, 1000.000000000000000 ) ;
#144 = ORIENTED_EDGE ( 'NONE', *, *, #8, .T. ) ;
#145 = SURFACE_SIDE_STYLE ('',( #202 ) ) ;
#146 = EDGE_CURVE ( 'NONE', #45, #253, #340, .T. ) ;
#147 = VERTEX_POINT ( 'NONE', #236 ) ;
#148 = FACE_OUTER_BOUND ( 'NONE', #124, .T. ) ;
#149 = ORIENTED_EDGE ( 'NONE', *, *, #280, .T. ) ;
#150 = EDGE_CURVE ( 'NONE', #200, #197, #308, .T. ) ;
#151 = ORIENTED_EDGE ( 'NONE', *, *, #194, .F. ) ;
#152 = DIRECTION ( 'NONE',  ( 0.0000000000000000000, 0.0000000000000000000, -1.000000000000000000 ) ) ;
#153 = PRODUCT_DEFINITION ( 'UNKNOWN', '', #355, #275 ) ;
#154 = PLANE ( 'NONE',  #239 ) ;
#155 = CARTESIAN_POINT ( 'NONE',  ( 12.40000000000000200, -9.000000000000001800, 0.0000000000000000000 ) ) ;
#156 =( GEOMETRIC_REPRESENTATION_CONTEXT ( 3 ) GLOBAL_UNCERTAINTY_ASSIGNED_CONTEXT ( ( #310 ) ) GLOBAL_UNIT_ASSIGNED_CONTEXT ( ( #168, #305, #250 ) ) REPRESENTATION_CONTEXT ( 'NONE', 'WORKASPACE' ) );
#157 = VECTOR ( 'NONE', #152, 1000.000000000000000 ) ;
#158 = COLOUR_RGB ( '',0.0000000000000000000, 0.0000000000000000000, 0.0000000000000000000 ) ;
#159 = CARTESIAN_POINT ( 'NONE',  ( -3.199999999999999700, 3.499999999999999600, 3.000000000000000000 ) ) ;
#160 = CARTESIAN_POINT ( 'NONE',  ( -3.199999999999999700, -3.500000000000000000, 0.0000000000000000000 ) ) ;
#161 = VECTOR ( 'NONE', #338, 1000.000000000000000 ) ;
#162 = EDGE_LOOP ( 'NONE', ( #357, #216, #252, #83 ) ) ;
#163 = CARTESIAN_POINT ( 'NONE',  ( 5.099999999999999600, 0.0000000000000000000, 3.000000000000000000 ) ) ;
#164 = ORIENTED_EDGE ( 'NONE', *, *, #254, .T. ) ;
#165 = EDGE_CURVE ( 'NONE', #147, #376, #228, .T. ) ;
#166 = CARTESIAN_POINT ( 'NONE',  ( 12.40000000000000200, -9.000000000000001800, 2.000000000000000000 ) ) ;
#167 = CARTESIAN_POINT ( 'NONE',  ( 5.099999999999999600, 0.0000000000000000000, 0.0000000000000000000 ) ) ;
#168 =( LENGTH_UNIT ( ) NAMED_UNIT ( * ) SI_UNIT ( .MILLI., .METRE. ) );
#169 = DIRECTION ( 'NONE',  ( -1.000000000000000000, 0.0000000000000000000, 0.0000000000000000000 ) ) ;
#170 = UNCERTAINTY_MEASURE_WITH_UNIT (LENGTH_MEASURE( 1.000000000000000100E-005 ), #281, 'distance_accuracy_value', 'NONE');
#171 = VECTOR ( 'NONE', #37, 1000.000000000000000 ) ;
#172 = ORIENTED_EDGE ( 'NONE', *, *, #65, .F. ) ;
#173 = EDGE_LOOP ( 'NONE', ( #51, #183, #353, #179 ) ) ;
#174 = EDGE_CURVE ( 'NONE', #229, #354, #371, .T. ) ;
#175 = LINE ( 'NONE', #60, #266 ) ;
#176 = SURFACE_STYLE_FILL_AREA ( #177 ) ;
#177 = FILL_AREA_STYLE ('',( #125 ) ) ;
#178 = ADVANCED_FACE ( 'NONE', ( #297 ), #356, .F. ) ;
#179 = ORIENTED_EDGE ( 'NONE', *, *, #377, .F. ) ;
#180 = DIRECTION ( 'NONE',  ( 0.0000000000000000000, 0.0000000000000000000, -1.000000000000000000 ) ) ;
#181 = AXIS2_PLACEMENT_3D ( 'NONE', #319, #201, #227 ) ;
#182 = LINE ( 'NONE', #126, #211 ) ;
#183 = ORIENTED_EDGE ( 'NONE', *, *, #370, .T. ) ;
#184 = CARTESIAN_POINT ( 'NONE',  ( 12.40000000000000200, 9.000000000000001800, 2.000000000000000000 ) ) ;
#185 = DIRECTION ( 'NONE',  ( -1.000000000000000000, 0.0000000000000000000, 0.0000000000000000000 ) ) ;
#186 = EDGE_CURVE ( 'NONE', #208, #354, #316, .T. ) ;
#187 = EDGE_LOOP ( 'NONE', ( #9, #136, #256, #264 ) ) ;
#188 = DIRECTION ( 'NONE',  ( -1.000000000000000000, 0.0000000000000000000, -0.0000000000000000000 ) ) ;
#189 = CARTESIAN_POINT ( 'NONE',  ( 5.100000000000000500, -3.499999999999999600, 3.000000000000000000 ) ) ;
#190 = CARTESIAN_POINT ( 'NONE',  ( 5.099999999999999600, 0.0000000000000000000, 2.000000000000000000 ) ) ;
#191 = VECTOR ( 'NONE', #75, 1000.000000000000000 ) ;
#192 = FACE_OUTER_BOUND ( 'NONE', #349, .T. ) ;
#193 = DIRECTION ( 'NONE',  ( 0.0000000000000000000, 0.0000000000000000000, 1.000000000000000000 ) ) ;
#194 = EDGE_CURVE ( 'NONE', #138, #208, #328, .T. ) ;
#195 = DIRECTION ( 'NONE',  ( -1.000000000000000000, 0.0000000000000000000, 0.0000000000000000000 ) ) ;
#196 = VECTOR ( 'NONE', #206, 1000.000000000000000 ) ;
#197 = VERTEX_POINT ( 'NONE', #292 ) ;
#198 = ORIENTED_EDGE ( 'NONE', *, *, #247, .T. ) ;
#199 = AXIS2_PLACEMENT_3D ( 'NONE', #167, #24, #195 ) ;
#200 = VERTEX_POINT ( 'NONE', #99 ) ;
#201 = DIRECTION ( 'NONE',  ( 0.0000000000000000000, 0.0000000000000000000, -1.000000000000000000 ) ) ;
#202 = SURFACE_STYLE_FILL_AREA ( #312 ) ;
#203 = CIRCLE ( 'NONE', #52, 3.500000000000000000 ) ;
#204 = DIRECTION ( 'NONE',  ( 1.000000000000000000, 0.0000000000000000000, 0.0000000000000000000 ) ) ;
#205 = ADVANCED_FACE ( 'NONE', ( #148 ), #154, .F. ) ;
#206 = DIRECTION ( 'NONE',  ( 0.0000000000000000000, 0.0000000000000000000, -1.000000000000000000 ) ) ;
#207 = DIRECTION ( 'NONE',  ( 0.0000000000000000000, 0.0000000000000000000, 1.000000000000000000 ) ) ;
#208 = VERTEX_POINT ( 'NONE', #155 ) ;
#209 = CARTESIAN_POINT ( 'NONE',  ( -3.199999999999999700, -3.500000000000000000, 2.000000000000000000 ) ) ;
#210 = EDGE_CURVE ( 'NONE', #291, #14, #61, .T. ) ;
#211 = VECTOR ( 'NONE', #225, 1000.000000000000000 ) ;
#212 = ORIENTED_EDGE ( 'NONE', *, *, #150, .T. ) ;
#213 = CARTESIAN_POINT ( 'NONE',  ( 12.40000000000000200, 3.499999999999999600, 3.000000000000000000 ) ) ;
#214 = DIRECTION ( 'NONE',  ( -0.0000000000000000000, -0.0000000000000000000, 1.000000000000000000 ) ) ;
#215 = DIRECTION ( 'NONE',  ( -0.0000000000000000000, 1.000000000000000000, 0.0000000000000000000 ) ) ;
#216 = ORIENTED_EDGE ( 'NONE', *, *, #269, .T. ) ;
#217 = EDGE_CURVE ( 'NONE', #14, #253, #203, .T. ) ;
#218 = PLANE ( 'NONE',  #103 ) ;
#219 = APPLICATION_CONTEXT ( 'automotive_design' ) ;
#220 = VECTOR ( 'NONE', #188, 1000.000000000000000 ) ;
#221 = VECTOR ( 'NONE', #120, 1000.000000000000000 ) ;
#222 = EDGE_LOOP ( 'NONE', ( #335, #347, #57, #19 ) ) ;
#223 = PRESENTATION_LAYER_ASSIGNMENT (  '', '', ( #260 ) ) ;
#224 = LINE ( 'NONE', #325, #55 ) ;
#225 = DIRECTION ( 'NONE',  ( 0.0000000000000000000, 0.0000000000000000000, -1.000000000000000000 ) ) ;
#226 = ORIENTED_EDGE ( 'NONE', *, *, #284, .T. ) ;
#227 = DIRECTION ( 'NONE',  ( -1.000000000000000000, 0.0000000000000000000, -0.0000000000000000000 ) ) ;
#228 = LINE ( 'NONE', #133, #171 ) ;
#229 = VERTEX_POINT ( 'NONE', #7 ) ;
#230 = ORIENTED_EDGE ( 'NONE', *, *, #174, .T. ) ;
#231 = DIRECTION ( 'NONE',  ( 0.0000000000000000000, 0.0000000000000000000, -1.000000000000000000 ) ) ;
#232 = ADVANCED_FACE ( 'NONE', ( #122 ), #251, .F. ) ;
#233 = AXIS2_PLACEMENT_3D ( 'NONE', #184, #11, #98 ) ;
#234 = CARTESIAN_POINT ( 'NONE',  ( -3.200000000000000200, 3.500000000000000000, 2.000000000000000000 ) ) ;
#235 = VECTOR ( 'NONE', #215, 1000.000000000000000 ) ;
#236 = CARTESIAN_POINT ( 'NONE',  ( 5.100000000000000500, -3.500000000000000000, 0.0000000000000000000 ) ) ;
#237 = LINE ( 'NONE', #78, #345 ) ;
#238 = CARTESIAN_POINT ( 'NONE',  ( 12.40000000000000200, 9.000000000000001800, 0.0000000000000000000 ) ) ;
#239 = AXIS2_PLACEMENT_3D ( 'NONE', #39, #71, #180 ) ;
#240 = DIRECTION ( 'NONE',  ( -0.0000000000000000000, 1.000000000000000000, 0.0000000000000000000 ) ) ;
#241 = CYLINDRICAL_SURFACE ( 'NONE', #365, 3.500000000000000000 ) ;
#242 = VERTEX_POINT ( 'NONE', #189 ) ;
#243 = CARTESIAN_POINT ( 'NONE',  ( -3.200000000000000200, 3.500000000000000000, 2.000000000000000000 ) ) ;
#244 = CARTESIAN_POINT ( 'NONE',  ( -3.200000000000000200, 0.0000000000000000000, 3.000000000000000000 ) ) ;
#245 = LINE ( 'NONE', #141, #73 ) ;
#246 = ORIENTED_EDGE ( 'NONE', *, *, #247, .F. ) ;
#247 = EDGE_CURVE ( 'NONE', #90, #138, #18, .T. ) ;
#248 = CARTESIAN_POINT ( 'NONE',  ( 0.0000000000000000000, 0.0000000000000000000, 0.0000000000000000000 ) ) ;
#249 = PRODUCT_CONTEXT ( 'NONE', #346, 'mechanical' ) ;
#250 =( NAMED_UNIT ( * ) SI_UNIT ( $, .STERADIAN. ) SOLID_ANGLE_UNIT ( ) );
#251 = CYLINDRICAL_SURFACE ( 'NONE', #28, 3.500000000000000000 ) ;
#252 = ORIENTED_EDGE ( 'NONE', *, *, #284, .F. ) ;
#253 = VERTEX_POINT ( 'NONE', #17 ) ;
#254 = EDGE_CURVE ( 'NONE', #283, #208, #255, .T. ) ;
#255 = LINE ( 'NONE', #334, #41 ) ;
#256 = ORIENTED_EDGE ( 'NONE', *, *, #217, .F. ) ;
#257 =( LENGTH_UNIT ( ) NAMED_UNIT ( * ) SI_UNIT ( .MILLI., .METRE. ) );
#258 = CARTESIAN_POINT ( 'NONE',  ( -6.700000000000000200, 0.0000000000000000000, 3.000000000000000000 ) ) ;
#259 = CARTESIAN_POINT ( 'NONE',  ( -3.200000000000000200, 0.0000000000000000000, 2.000000000000000000 ) ) ;
#260 = STYLED_ITEM ( 'NONE', ( #262 ), #2 ) ;
#261 = FACE_OUTER_BOUND ( 'NONE', #222, .T. ) ;
#262 = PRESENTATION_STYLE_ASSIGNMENT (( #322 ) ) ;
#263 = ADVANCED_FACE ( 'NONE', ( #332 ), #241, .F. ) ;
#264 = ORIENTED_EDGE ( 'NONE', *, *, #210, .F. ) ;
#265 = DIRECTION ( 'NONE',  ( 0.0000000000000000000, 0.0000000000000000000, -1.000000000000000000 ) ) ;
#266 = VECTOR ( 'NONE', #286, 1000.000000000000000 ) ;
#267 = EDGE_LOOP ( 'NONE', ( #42, #276, #123, #23, #62 ) ) ;
#268 = CARTESIAN_POINT ( 'NONE',  ( 5.100000000000000500, 3.499999999999999600, 3.000000000000000000 ) ) ;
#269 = EDGE_CURVE ( 'NONE', #242, #115, #348, .T. ) ;
#270 = DIRECTION ( 'NONE',  ( -1.000000000000000000, -0.0000000000000000000, -0.0000000000000000000 ) ) ;
#271 = DIRECTION ( 'NONE',  ( 0.0000000000000000000, -1.000000000000000000, 0.0000000000000000000 ) ) ;
#272 = ORIENTED_EDGE ( 'NONE', *, *, #186, .T. ) ;
#273 = CARTESIAN_POINT ( 'NONE',  ( 12.40000000000000200, -9.000000000000001800, 3.000000000000000000 ) ) ;
#274 = AXIS2_PLACEMENT_3D ( 'NONE', #248, #193, #82 ) ;
#275 = PRODUCT_DEFINITION_CONTEXT ( 'detailed design', #219, 'design' ) ;
#276 = ORIENTED_EDGE ( 'NONE', *, *, #350, .T. ) ;
#277 = CARTESIAN_POINT ( 'NONE',  ( -3.200000000000000200, 0.0000000000000000000, 2.000000000000000000 ) ) ;
#278 = COLOUR_RGB ( '',0.7529411764705882200, 0.7529411764705882200, 0.7529411764705882200 ) ;
#279 = FACE_OUTER_BOUND ( 'NONE', #173, .T. ) ;
#280 = EDGE_CURVE ( 'NONE', #318, #242, #245, .T. ) ;
#281 =( LENGTH_UNIT ( ) NAMED_UNIT ( * ) SI_UNIT ( .MILLI., .METRE. ) );
#282 = UNCERTAINTY_MEASURE_WITH_UNIT (LENGTH_MEASURE( 1.000000000000000100E-005 ), #257, 'distance_accuracy_value', 'NONE');
#283 = VERTEX_POINT ( 'NONE', #366 ) ;
#284 = EDGE_CURVE ( 'NONE', #66, #115, #237, .T. ) ;
#285 = PRODUCT_DEFINITION_SHAPE ( 'NONE', 'NONE',  #153 ) ;
#286 = DIRECTION ( 'NONE',  ( 0.0000000000000000000, 1.000000000000000000, 0.0000000000000000000 ) ) ;
#287 = LINE ( 'NONE', #117, #221 ) ;
#288 = CARTESIAN_POINT ( 'NONE',  ( 5.100000000000000500, 3.500000000000000000, 0.0000000000000000000 ) ) ;
#289 = ADVANCED_FACE ( 'NONE', ( #96 ), #76, .T. ) ;
#290 = PLANE ( 'NONE',  #94 ) ;
#291 = VERTEX_POINT ( 'NONE', #159 ) ;
#292 = CARTESIAN_POINT ( 'NONE',  ( -12.40000000000000200, 9.000000000000001800, 3.000000000000000000 ) ) ;
#293 = EDGE_CURVE ( 'NONE', #291, #45, #50, .T. ) ;
#294 = ADVANCED_FACE ( 'NONE', ( #192 ), #361, .F. ) ;
#295 = DIRECTION ( 'NONE',  ( -0.0000000000000000000, -0.0000000000000000000, 1.000000000000000000 ) ) ;
#296 = LINE ( 'NONE', #273, #191 ) ;
#297 = FACE_OUTER_BOUND ( 'NONE', #333, .T. ) ;
#298 = ORIENTED_EDGE ( 'NONE', *, *, #150, .F. ) ;
#299 = CARTESIAN_POINT ( 'NONE',  ( -12.40000000000000200, -9.000000000000001800, 0.0000000000000000000 ) ) ;
#300 = EDGE_CURVE ( 'NONE', #115, #291, #374, .T. ) ;
#301 = CARTESIAN_POINT ( 'NONE',  ( 12.40000000000000200, 9.000000000000001800, 2.000000000000000000 ) ) ;
#302 = CARTESIAN_POINT ( 'NONE',  ( -3.200000000000000200, 0.0000000000000000000, 3.000000000000000000 ) ) ;
#303 = ORIENTED_EDGE ( 'NONE', *, *, #370, .F. ) ;
#304 = ORIENTED_EDGE ( 'NONE', *, *, #186, .F. ) ;
#305 =( NAMED_UNIT ( * ) PLANE_ANGLE_UNIT ( ) SI_UNIT ( $, .RADIAN. ) );
#306 = CIRCLE ( 'NONE', #344, 3.500000000000000000 ) ;
#307 = EDGE_CURVE ( 'NONE', #354, #200, #315, .T. ) ;
#308 = LINE ( 'NONE', #129, #114 ) ;
#309 = ORIENTED_EDGE ( 'NONE', *, *, #269, .F. ) ;
#310 = UNCERTAINTY_MEASURE_WITH_UNIT (LENGTH_MEASURE( 1.000000000000000100E-005 ), #168, 'distance_accuracy_value', 'NONE');
#311 = DIRECTION ( 'NONE',  ( -0.0000000000000000000, -0.0000000000000000000, 1.000000000000000000 ) ) ;
#312 = FILL_AREA_STYLE ('',( #53 ) ) ;
#313 = ORIENTED_EDGE ( 'NONE', *, *, #210, .T. ) ;
#314 = ORIENTED_EDGE ( 'NONE', *, *, #194, .T. ) ;
#315 = LINE ( 'NONE', #104, #235 ) ;
#316 = LINE ( 'NONE', #134, #323 ) ;
#317 = DIRECTION ( 'NONE',  ( 1.000000000000000000, 0.0000000000000000000, 0.0000000000000000000 ) ) ;
#318 = VERTEX_POINT ( 'NONE', #47 ) ;
#319 = CARTESIAN_POINT ( 'NONE',  ( 12.40000000000000200, -9.000000000000001800, 3.000000000000000000 ) ) ;
#320 = DIRECTION ( 'NONE',  ( 0.0000000000000000000, 0.0000000000000000000, -1.000000000000000000 ) ) ;
#321 = EDGE_CURVE ( 'NONE', #90, #283, #296, .T. ) ;
#322 = SURFACE_STYLE_USAGE ( .BOTH. , #33 ) ;
#323 = VECTOR ( 'NONE', #270, 1000.000000000000000 ) ;
#324 =( GEOMETRIC_REPRESENTATION_CONTEXT ( 3 ) GLOBAL_UNCERTAINTY_ASSIGNED_CONTEXT ( ( #282 ) ) GLOBAL_UNIT_ASSIGNED_CONTEXT ( ( #257, #34, #31 ) ) REPRESENTATION_CONTEXT ( 'NONE', 'WORKASPACE' ) );
#325 = CARTESIAN_POINT ( 'NONE',  ( 12.40000000000000200, -9.000000000000001800, 3.000000000000000000 ) ) ;
#326 = CARTESIAN_POINT ( 'NONE',  ( -6.700000000000000200, 0.0000000000000000000, 2.000000000000000000 ) ) ;
#327 = DIRECTION ( 'NONE',  ( -1.000000000000000000, 0.0000000000000000000, 0.0000000000000000000 ) ) ;
#328 = LINE ( 'NONE', #238, #85 ) ;
#329 = CARTESIAN_POINT ( 'NONE',  ( 12.40000000000000200, 9.000000000000001800, 2.000000000000000000 ) ) ;
#330 = AXIS2_PLACEMENT_3D ( 'NONE', #329, #185, #207 ) ;
#331 = ADVANCED_FACE ( 'NONE', ( #29 ), #218, .T. ) ;
#332 = FACE_OUTER_BOUND ( 'NONE', #187, .T. ) ;
#333 = EDGE_LOOP ( 'NONE', ( #246, #97, #164, #151 ) ) ;
#334 = CARTESIAN_POINT ( 'NONE',  ( 12.40000000000000200, -9.000000000000001800, 2.000000000000000000 ) ) ;
#335 = ORIENTED_EDGE ( 'NONE', *, *, #109, .F. ) ;
#336 = DIRECTION ( 'NONE',  ( -0.0000000000000000000, -0.0000000000000000000, 1.000000000000000000 ) ) ;
#337 = PRODUCT_RELATED_PRODUCT_CATEGORY ( 'part', '', ( #343 ) ) ;
#338 = DIRECTION ( 'NONE',  ( -0.0000000000000000000, -0.0000000000000000000, -1.000000000000000000 ) ) ;
#339 = AXIS2_PLACEMENT_3D ( 'NONE', #244, #81, #373 ) ;
#340 = LINE ( 'NONE', #326, #157 ) ;
#341 = EDGE_LOOP ( 'NONE', ( #131, #309, #86, #303, #102 ) ) ;
#342 =( NAMED_UNIT ( * ) PLANE_ANGLE_UNIT ( ) SI_UNIT ( $, .RADIAN. ) );
#343 = PRODUCT ( '7228130_CNAJF00', '7228130_CNAJF00', '', ( #249 ) ) ;
#344 = AXIS2_PLACEMENT_3D ( 'NONE', #22, #311, #169 ) ;
#345 = VECTOR ( 'NONE', #139, 1000.000000000000000 ) ;
#346 = APPLICATION_CONTEXT ( 'automotive_design' ) ;
#347 = ORIENTED_EDGE ( 'NONE', *, *, #321, .F. ) ;
#348 = CIRCLE ( 'NONE', #72, 3.500000000000000000 ) ;
#349 = EDGE_LOOP ( 'NONE', ( #88, #67, #230, #304 ) ) ;
#350 = EDGE_CURVE ( 'NONE', #147, #66, #49, .T. ) ;
#351 = FACE_BOUND ( 'NONE', #267, .T. ) ;
#352 = CARTESIAN_POINT ( 'NONE',  ( 12.40000000000000200, 9.000000000000001800, 0.0000000000000000000 ) ) ;
#353 = ORIENTED_EDGE ( 'NONE', *, *, #128, .F. ) ;
#354 = VERTEX_POINT ( 'NONE', #299 ) ;
#355 = PRODUCT_DEFINITION_FORMATION_WITH_SPECIFIED_SOURCE ( 'ANY', '', #343, .NOT_KNOWN. ) ;
#356 = PLANE ( 'NONE',  #330 ) ;
#357 = ORIENTED_EDGE ( 'NONE', *, *, #16, .F. ) ;
#358 = DIRECTION ( 'NONE',  ( -1.000000000000000000, 0.0000000000000000000, -0.0000000000000000000 ) ) ;
#359 =( GEOMETRIC_REPRESENTATION_CONTEXT ( 3 ) GLOBAL_UNCERTAINTY_ASSIGNED_CONTEXT ( ( #170 ) ) GLOBAL_UNIT_ASSIGNED_CONTEXT ( ( #281, #342, #111 ) ) REPRESENTATION_CONTEXT ( 'NONE', 'WORKASPACE' ) );
#360 = DIRECTION ( 'NONE',  ( -1.000000000000000000, 0.0000000000000000000, -0.0000000000000000000 ) ) ;
#361 = PLANE ( 'NONE',  #367 ) ;
#362 = LINE ( 'NONE', #1, #27 ) ;
#363 = ORIENTED_EDGE ( 'NONE', *, *, #65, .T. ) ;
#364 = DIRECTION ( 'NONE',  ( 0.0000000000000000000, -0.0000000000000000000, 1.000000000000000000 ) ) ;
#365 = AXIS2_PLACEMENT_3D ( 'NONE', #277, #46, #43 ) ;
#366 = CARTESIAN_POINT ( 'NONE',  ( 12.40000000000000200, -9.000000000000001800, 3.000000000000000000 ) ) ;
#367 = AXIS2_PLACEMENT_3D ( 'NONE', #166, #240, #364 ) ;
#368 = ORIENTED_EDGE ( 'NONE', *, *, #307, .T. ) ;
#369 = DIRECTION ( 'NONE',  ( -0.0000000000000000000, 1.000000000000000000, 0.0000000000000000000 ) ) ;
#370 = EDGE_CURVE ( 'NONE', #45, #318, #113, .T. ) ;
#371 = LINE ( 'NONE', #127, #143 ) ;
#372 = EDGE_LOOP ( 'NONE', ( #314, #272, #368, #363 ) ) ;
#373 = DIRECTION ( 'NONE',  ( -1.000000000000000000, 0.0000000000000000000, 0.0000000000000000000 ) ) ;
#374 = LINE ( 'NONE', #213, #220 ) ;
#375 = ORIENTED_EDGE ( 'NONE', *, *, #165, .T. ) ;
#376 = VERTEX_POINT ( 'NONE', #160 ) ;
#377 = EDGE_CURVE ( 'NONE', #253, #376, #306, .T. ) ;
ENDSEC;
END-ISO-10303-21;
