ISO-10303-21;
HEADER;
FILE_DESCRIPTION (( 'STEP AP214' ),
    '1' );
FILE_NAME ('6530466',
    '2019-01-31T12:11:38',
    ( '' ),
    ('JUGARD+KÜNSTNER GmbH'),
    'SwSTEP 2.0',
    'SolidWorks 2017',
    '' );
FILE_SCHEMA (( 'AUTOMOTIVE_DESIGN' ));
ENDSEC;

DATA;
#1 = VECTOR ( 'NONE', #66, 1000.000000000000000 ) ;
#2 = ORIENTED_EDGE ( 'NONE', *, *, #315, .T. ) ;
#3 = CARTESIAN_POINT ( 'NONE',  ( 0.0000000000000000000, 0.0000000000000000000, 0.0000000000000000000 ) ) ;
#4 =( NAMED_UNIT ( * ) PLANE_ANGLE_UNIT ( ) SI_UNIT ( $, .RADIAN. ) );
#5 = EDGE_CURVE ( 'NONE', #371, #138, #21, .T. ) ;
#6 = CYLINDRICAL_SURFACE ( 'NONE', #200, 55.00000000000000000 ) ;
#7 = ORIENTED_EDGE ( 'NONE', *, *, #136, .F. ) ;
#8 = DIRECTION ( 'NONE',  ( 1.000000000000000000, 0.0000000000000000000, 0.0000000000000000000 ) ) ;
#9 = DIRECTION ( 'NONE',  ( 1.000000000000000000, 0.0000000000000000000, -0.0000000000000000000 ) ) ;
#10 =( LENGTH_UNIT ( ) NAMED_UNIT ( * ) SI_UNIT ( .MILLI., .METRE. ) );
#11 = DIRECTION ( 'NONE',  ( 0.0000000000000000000, -0.0000000000000000000, 1.000000000000000000 ) ) ;
#12 = ORIENTED_EDGE ( 'NONE', *, *, #272, .T. ) ;
#13 = AXIS2_PLACEMENT_3D ( 'NONE', #35, #357, #294 ) ;
#14 = CARTESIAN_POINT ( 'NONE',  ( -38.00000000000000000, 30.75000000000000000, 0.0000000000000000000 ) ) ;
#15 = CARTESIAN_POINT ( 'NONE',  ( -72.50000000000001400, 18.58398183685471800, -600.0000000000000000 ) ) ;
#16 = ADVANCED_BREP_SHAPE_REPRESENTATION ( '6530466_CNAJF00', ( #339, #141 ), #31 ) ;
#17 = ORIENTED_EDGE ( 'NONE', *, *, #160, .T. ) ;
#18 = CARTESIAN_POINT ( 'NONE',  ( 38.00000000000000000, 30.75000000000000000, 0.0000000000000000000 ) ) ;
#19 = CARTESIAN_POINT ( 'NONE',  ( -38.00000000000000000, 24.25000000000000000, 0.0000000000000000000 ) ) ;
#20 = DIRECTION ( 'NONE',  ( 1.000000000000000000, 0.0000000000000000000, -0.0000000000000000000 ) ) ;
#21 = LINE ( 'NONE', #205, #356 ) ;
#22 = ORIENTED_EDGE ( 'NONE', *, *, #266, .F. ) ;
#23 = DIRECTION ( 'NONE',  ( 1.000000000000000000, 0.0000000000000000000, -0.0000000000000000000 ) ) ;
#24 = CIRCLE ( 'NONE', #153, 55.00000000000000000 ) ;
#25 = VERTEX_POINT ( 'NONE', #149 ) ;
#26 = AXIS2_PLACEMENT_3D ( 'NONE', #207, #180, #9 ) ;
#27 = PRESENTATION_STYLE_ASSIGNMENT (( #260 ) ) ;
#28 = COLOUR_RGB ( '',0.5999999999999999800, 0.5999999999999999800, 0.5999999999999999800 ) ;
#29 = EDGE_LOOP ( 'NONE', ( #182, #249, #219, #78 ) ) ;
#30 = DIRECTION ( 'NONE',  ( 1.000000000000000000, 0.0000000000000000000, 0.0000000000000000000 ) ) ;
#31 =( GEOMETRIC_REPRESENTATION_CONTEXT ( 3 ) GLOBAL_UNCERTAINTY_ASSIGNED_CONTEXT ( ( #94 ) ) GLOBAL_UNIT_ASSIGNED_CONTEXT ( ( #145, #33, #77 ) ) REPRESENTATION_CONTEXT ( 'NONE', 'WORKASPACE' ) );
#32 = FACE_OUTER_BOUND ( 'NONE', #142, .T. ) ;
#33 =( NAMED_UNIT ( * ) PLANE_ANGLE_UNIT ( ) SI_UNIT ( $, .RADIAN. ) );
#34 = ORIENTED_EDGE ( 'NONE', *, *, #132, .F. ) ;
#35 = CARTESIAN_POINT ( 'NONE',  ( 0.0000000000000000000, -30.75000000000000000, 0.0000000000000000000 ) ) ;
#36 =( NAMED_UNIT ( * ) PLANE_ANGLE_UNIT ( ) SI_UNIT ( $, .RADIAN. ) );
#37 = VECTOR ( 'NONE', #45, 1000.000000000000000 ) ;
#38 = VERTEX_POINT ( 'NONE', #80 ) ;
#39 = DIRECTION ( 'NONE',  ( -1.000000000000000000, 0.0000000000000000000, 0.0000000000000000000 ) ) ;
#40 = CARTESIAN_POINT ( 'NONE',  ( 38.00000000000000000, 24.25000000000000000, 0.0000000000000000000 ) ) ;
#41 = LINE ( 'NONE', #18, #224 ) ;
#42 = DIRECTION ( 'NONE',  ( 1.000000000000000000, 0.0000000000000000000, 0.0000000000000000000 ) ) ;
#43 = ORIENTED_EDGE ( 'NONE', *, *, #364, .T. ) ;
#44 = CARTESIAN_POINT ( 'NONE',  ( -72.50000000000000000, -18.58398183685471800, 600.0000000000000000 ) ) ;
#45 = DIRECTION ( 'NONE',  ( -0.0000000000000000000, 1.000000000000000000, 0.0000000000000000000 ) ) ;
#46 = VECTOR ( 'NONE', #277, 1000.000000000000000 ) ;
#47 = ORIENTED_EDGE ( 'NONE', *, *, #204, .T. ) ;
#48 = CIRCLE ( 'NONE', #256, 55.00000000000000000 ) ;
#49 = AXIS2_PLACEMENT_3D ( 'NONE', #330, #60, #267 ) ;
#50 = ORIENTED_EDGE ( 'NONE', *, *, #272, .F. ) ;
#51 = ORIENTED_EDGE ( 'NONE', *, *, #162, .T. ) ;
#52 = LINE ( 'NONE', #81, #307 ) ;
#53 = ORIENTED_EDGE ( 'NONE', *, *, #360, .F. ) ;
#54 = MECHANICAL_DESIGN_GEOMETRIC_PRESENTATION_REPRESENTATION (  '', ( #295 ), #311 ) ;
#55 = EDGE_CURVE ( 'NONE', #225, #371, #71, .T. ) ;
#56 = CARTESIAN_POINT ( 'NONE',  ( 72.50000000000000000, 0.0000000000000000000, -600.0000000000000000 ) ) ;
#57 = LINE ( 'NONE', #215, #37 ) ;
#58 = DIRECTION ( 'NONE',  ( 0.0000000000000000000, 0.0000000000000000000, 1.000000000000000000 ) ) ;
#59 = PRESENTATION_LAYER_ASSIGNMENT (  '', '', ( #295 ) ) ;
#60 = DIRECTION ( 'NONE',  ( -0.0000000000000000000, 1.000000000000000000, 0.0000000000000000000 ) ) ;
#61 = DIRECTION ( 'NONE',  ( 1.000000000000000000, 3.532527805625497900E-015, 0.0000000000000000000 ) ) ;
#62 = COLOUR_RGB ( '',1.000000000000000000, 1.000000000000000000, 0.5999999999999999800 ) ;
#63 = ADVANCED_FACE ( 'NONE', ( #165 ), #239, .T. ) ;
#64 = DIRECTION ( 'NONE',  ( -0.0000000000000000000, 0.0000000000000000000, -1.000000000000000000 ) ) ;
#65 = CYLINDRICAL_SURFACE ( 'NONE', #169, 55.00000000000000700 ) ;
#66 = DIRECTION ( 'NONE',  ( 0.0000000000000000000, -0.0000000000000000000, -1.000000000000000000 ) ) ;
#67 = AXIS2_PLACEMENT_3D ( 'NONE', #127, #190, #23 ) ;
#68 = VECTOR ( 'NONE', #353, 1000.000000000000000 ) ;
#69 = PRODUCT_DEFINITION_FORMATION_WITH_SPECIFIED_SOURCE ( 'ANY', '', #264, .NOT_KNOWN. ) ;
#70 = CARTESIAN_POINT ( 'NONE',  ( 72.50000000000001400, 18.58398183685472600, 600.0000000000000000 ) ) ;
#71 = CIRCLE ( 'NONE', #310, 55.00000000000000700 ) ;
#72 = VERTEX_POINT ( 'NONE', #322 ) ;
#73 = LINE ( 'NONE', #83, #101 ) ;
#74 = EDGE_CURVE ( 'NONE', #193, #222, #228, .T. ) ;
#75 = ORIENTED_EDGE ( 'NONE', *, *, #266, .T. ) ;
#76 = ORIENTED_EDGE ( 'NONE', *, *, #179, .T. ) ;
#77 =( NAMED_UNIT ( * ) SI_UNIT ( $, .STERADIAN. ) SOLID_ANGLE_UNIT ( ) );
#78 = ORIENTED_EDGE ( 'NONE', *, *, #360, .T. ) ;
#79 = FILL_AREA_STYLE ('',( #287 ) ) ;
#80 = CARTESIAN_POINT ( 'NONE',  ( 72.50000000000001400, 18.58398183685472600, -600.0000000000000000 ) ) ;
#81 = CARTESIAN_POINT ( 'NONE',  ( 72.50000000000000000, -18.58398183685470100, 0.0000000000000000000 ) ) ;
#82 = APPLICATION_PROTOCOL_DEFINITION ( 'draft international standard', 'automotive_design', 1998, #265 ) ;
#83 = CARTESIAN_POINT ( 'NONE',  ( 0.0000000000000000000, 30.75000000000000000, -600.0000000000000000 ) ) ;
#84 = VECTOR ( 'NONE', #281, 1000.000000000000000 ) ;
#85 = FILL_AREA_STYLE ('',( #170 ) ) ;
#86 = FILL_AREA_STYLE ('',( #148 ) ) ;
#87 = PRODUCT_RELATED_PRODUCT_CATEGORY ( 'part', '', ( #264 ) ) ;
#88 = ORIENTED_EDGE ( 'NONE', *, *, #74, .F. ) ;
#89 = CARTESIAN_POINT ( 'NONE',  ( 72.50000000000000000, -18.58398183685471100, -600.0000000000000000 ) ) ;
#90 = ADVANCED_FACE ( 'NONE', ( #370 ), #178, .T. ) ;
#91 = AXIS2_PLACEMENT_3D ( 'NONE', #203, #140, #166 ) ;
#92 = ADVANCED_FACE ( 'NONE', ( #309 ), #299, .F. ) ;
#93 = DIRECTION ( 'NONE',  ( 0.0000000000000000000, 0.0000000000000000000, -1.000000000000000000 ) ) ;
#94 = UNCERTAINTY_MEASURE_WITH_UNIT (LENGTH_MEASURE( 1.000000000000000100E-005 ), #145, 'distance_accuracy_value', 'NONE');
#95 = VECTOR ( 'NONE', #271, 1000.000000000000000 ) ;
#96 = EDGE_LOOP ( 'NONE', ( #102, #135, #254, #75 ) ) ;
#97 = VERTEX_POINT ( 'NONE', #359 ) ;
#98 = AXIS2_PLACEMENT_3D ( 'NONE', #40, #243, #184 ) ;
#99 = VERTEX_POINT ( 'NONE', #112 ) ;
#100 = EDGE_CURVE ( 'NONE', #222, #197, #175, .T. ) ;
#101 = VECTOR ( 'NONE', #146, 1000.000000000000000 ) ;
#102 = ORIENTED_EDGE ( 'NONE', *, *, #136, .T. ) ;
#103 = PRODUCT_DEFINITION_CONTEXT ( 'detailed design', #265, 'design' ) ;
#104 = VECTOR ( 'NONE', #319, 1000.000000000000000 ) ;
#105 = ORIENTED_EDGE ( 'NONE', *, *, #195, .T. ) ;
#106 = ORIENTED_EDGE ( 'NONE', *, *, #5, .T. ) ;
#107 = SURFACE_STYLE_USAGE ( .BOTH. , #258 ) ;
#108 = PRESENTATION_LAYER_ASSIGNMENT (  '', '', ( #244 ) ) ;
#109 = DIRECTION ( 'NONE',  ( 0.0000000000000000000, 0.0000000000000000000, 1.000000000000000000 ) ) ;
#110 = ORIENTED_EDGE ( 'NONE', *, *, #198, .F. ) ;
#111 =( NAMED_UNIT ( * ) SI_UNIT ( $, .STERADIAN. ) SOLID_ANGLE_UNIT ( ) );
#112 = CARTESIAN_POINT ( 'NONE',  ( 38.00000000000000000, 30.75000000000000000, 600.0000000000000000 ) ) ;
#113 = AXIS2_PLACEMENT_3D ( 'NONE', #276, #338, #119 ) ;
#114 = CARTESIAN_POINT ( 'NONE',  ( -38.00000000000000000, 30.75000000000000000, -600.0000000000000000 ) ) ;
#115 = LINE ( 'NONE', #363, #95 ) ;
#116 = VERTEX_POINT ( 'NONE', #114 ) ;
#117 =( LENGTH_UNIT ( ) NAMED_UNIT ( * ) SI_UNIT ( .MILLI., .METRE. ) );
#118 = PLANE ( 'NONE',  #300 ) ;
#119 = DIRECTION ( 'NONE',  ( 1.000000000000000000, 0.0000000000000000000, 0.0000000000000000000 ) ) ;
#120 = ADVANCED_FACE ( 'NONE', ( #284 ), #326, .T. ) ;
#121 = VECTOR ( 'NONE', #126, 1000.000000000000000 ) ;
#122 = CARTESIAN_POINT ( 'NONE',  ( 38.00000000000000000, 24.25000000000000000, 600.0000000000000000 ) ) ;
#123 = EDGE_LOOP ( 'NONE', ( #257, #194, #358, #316, #167, #129, #328, #7 ) ) ;
#124 = AXIS2_PLACEMENT_3D ( 'NONE', #122, #303, #183 ) ;
#125 = CARTESIAN_POINT ( 'NONE',  ( -38.00000000000000000, -30.75000000000000000, 0.0000000000000000000 ) ) ;
#126 = DIRECTION ( 'NONE',  ( -0.0000000000000000000, -0.0000000000000000000, -1.000000000000000000 ) ) ;
#127 = CARTESIAN_POINT ( 'NONE',  ( 0.0000000000000000000, 0.0000000000000000000, 600.0000000000000000 ) ) ;
#128 = LINE ( 'NONE', #14, #163 ) ;
#129 = ORIENTED_EDGE ( 'NONE', *, *, #160, .F. ) ;
#130 = DIRECTION ( 'NONE',  ( 1.000000000000000000, 0.0000000000000000000, 0.0000000000000000000 ) ) ;
#131 = PLANE ( 'NONE',  #67 ) ;
#132 = EDGE_CURVE ( 'NONE', #197, #99, #312, .T. ) ;
#133 = CARTESIAN_POINT ( 'NONE',  ( 38.00000000000000000, 30.75000000000000000, -600.0000000000000000 ) ) ;
#134 = FACE_OUTER_BOUND ( 'NONE', #285, .T. ) ;
#135 = ORIENTED_EDGE ( 'NONE', *, *, #158, .T. ) ;
#136 = EDGE_CURVE ( 'NONE', #270, #116, #73, .T. ) ;
#137 = PRESENTATION_STYLE_ASSIGNMENT (( #107 ) ) ;
#138 = VERTEX_POINT ( 'NONE', #336 ) ;
#139 = AXIS2_PLACEMENT_3D ( 'NONE', #206, #236, #61 ) ;
#140 = DIRECTION ( 'NONE',  ( 0.0000000000000000000, -0.0000000000000000000, 1.000000000000000000 ) ) ;
#141 = AXIS2_PLACEMENT_3D ( 'NONE', #3, #318, #286 ) ;
#142 = EDGE_LOOP ( 'NONE', ( #17, #263, #275, #88 ) ) ;
#143 = FILL_AREA_STYLE ('',( #227 ) ) ;
#144 =( LENGTH_UNIT ( ) NAMED_UNIT ( * ) SI_UNIT ( .MILLI., .METRE. ) );
#145 =( LENGTH_UNIT ( ) NAMED_UNIT ( * ) SI_UNIT ( .MILLI., .METRE. ) );
#146 = DIRECTION ( 'NONE',  ( -1.000000000000000000, -0.0000000000000000000, -0.0000000000000000000 ) ) ;
#147 = VECTOR ( 'NONE', #20, 1000.000000000000000 ) ;
#148 = FILL_AREA_STYLE_COLOUR ( '', #62 ) ;
#149 = CARTESIAN_POINT ( 'NONE',  ( 72.50000000000000000, -18.58398183685471100, 600.0000000000000000 ) ) ;
#150 = SURFACE_STYLE_USAGE ( .BOTH. , #292 ) ;
#151 = CARTESIAN_POINT ( 'NONE',  ( -72.50000000000000000, 0.0000000000000000000, 0.0000000000000000000 ) ) ;
#152 = ORIENTED_EDGE ( 'NONE', *, *, #238, .T. ) ;
#153 = AXIS2_PLACEMENT_3D ( 'NONE', #214, #212, #42 ) ;
#154 = ORIENTED_EDGE ( 'NONE', *, *, #204, .F. ) ;
#155 = DIRECTION ( 'NONE',  ( -0.0000000000000000000, -0.0000000000000000000, -1.000000000000000000 ) ) ;
#156 = DIRECTION ( 'NONE',  ( 1.000000000000000000, 8.831319514063744800E-016, 0.0000000000000000000 ) ) ;
#157 = CIRCLE ( 'NONE', #349, 55.00000000000000000 ) ;
#158 = EDGE_CURVE ( 'NONE', #116, #197, #128, .T. ) ;
#159 = CARTESIAN_POINT ( 'NONE',  ( 37.99999999999999300, -30.75000000000000000, 0.0000000000000000000 ) ) ;
#160 = EDGE_CURVE ( 'NONE', #193, #225, #115, .T. ) ;
#161 = ORIENTED_EDGE ( 'NONE', *, *, #100, .F. ) ;
#162 = EDGE_CURVE ( 'NONE', #38, #270, #24, .T. ) ;
#163 = VECTOR ( 'NONE', #11, 1000.000000000000000 ) ;
#164 = ORIENTED_EDGE ( 'NONE', *, *, #237, .T. ) ;
#165 = FACE_OUTER_BOUND ( 'NONE', #96, .T. ) ;
#166 = DIRECTION ( 'NONE',  ( 1.000000000000000000, 0.0000000000000000000, 0.0000000000000000000 ) ) ;
#167 = ORIENTED_EDGE ( 'NONE', *, *, #55, .F. ) ;
#168 = CARTESIAN_POINT ( 'NONE',  ( -72.50000000000000000, 0.0000000000000000000, 600.0000000000000000 ) ) ;
#169 = AXIS2_PLACEMENT_3D ( 'NONE', #19, #341, #130 ) ;
#170 = FILL_AREA_STYLE_COLOUR ( '', #28 ) ;
#171 = ADVANCED_FACE ( 'NONE', ( #208 ), #234, .T. ) ;
#172 = CARTESIAN_POINT ( 'NONE',  ( -38.00000000000000000, -30.75000000000000000, -600.0000000000000000 ) ) ;
#173 =( NAMED_UNIT ( * ) SI_UNIT ( $, .STERADIAN. ) SOLID_ANGLE_UNIT ( ) );
#174 = SURFACE_STYLE_USAGE ( .BOTH. , #352 ) ;
#175 = CIRCLE ( 'NONE', #139, 55.00000000000000000 ) ;
#176 = ORIENTED_EDGE ( 'NONE', *, *, #315, .F. ) ;
#177 = ORIENTED_EDGE ( 'NONE', *, *, #74, .T. ) ;
#178 = PLANE ( 'NONE',  #13 ) ;
#179 = EDGE_CURVE ( 'NONE', #279, #38, #278, .T. ) ;
#180 = DIRECTION ( 'NONE',  ( 0.0000000000000000000, 0.0000000000000000000, 1.000000000000000000 ) ) ;
#181 =( GEOMETRIC_REPRESENTATION_CONTEXT ( 3 ) GLOBAL_UNCERTAINTY_ASSIGNED_CONTEXT ( ( #369 ) ) GLOBAL_UNIT_ASSIGNED_CONTEXT ( ( #117, #36, #111 ) ) REPRESENTATION_CONTEXT ( 'NONE', 'WORKASPACE' ) );
#182 = ORIENTED_EDGE ( 'NONE', *, *, #372, .T. ) ;
#183 = DIRECTION ( 'NONE',  ( 1.000000000000000000, 0.0000000000000000000, 0.0000000000000000000 ) ) ;
#184 = DIRECTION ( 'NONE',  ( 1.000000000000000000, 0.0000000000000000000, 0.0000000000000000000 ) ) ;
#185 = MECHANICAL_DESIGN_GEOMETRIC_PRESENTATION_REPRESENTATION (  '', ( #217 ), #306 ) ;
#186 = CARTESIAN_POINT ( 'NONE',  ( -38.00000000000000000, 30.75000000000000000, 600.0000000000000000 ) ) ;
#187 = CARTESIAN_POINT ( 'NONE',  ( -72.50000000000001400, 18.58398183685471800, 600.0000000000000000 ) ) ;
#188 = LINE ( 'NONE', #189, #147 ) ;
#189 = CARTESIAN_POINT ( 'NONE',  ( 0.0000000000000000000, -30.75000000000000000, 600.0000000000000000 ) ) ;
#190 = DIRECTION ( 'NONE',  ( 0.0000000000000000000, 0.0000000000000000000, 1.000000000000000000 ) ) ;
#191 = MECHANICAL_DESIGN_GEOMETRIC_PRESENTATION_REPRESENTATION (  '', ( #244 ), #335 ) ;
#192 = UNCERTAINTY_MEASURE_WITH_UNIT (LENGTH_MEASURE( 1.000000000000000100E-005 ), #144, 'distance_accuracy_value', 'NONE');
#193 = VERTEX_POINT ( 'NONE', #15 ) ;
#194 = ORIENTED_EDGE ( 'NONE', *, *, #372, .F. ) ;
#195 = EDGE_CURVE ( 'NONE', #138, #213, #274, .T. ) ;
#196 = LINE ( 'NONE', #168, #269 ) ;
#197 = VERTEX_POINT ( 'NONE', #186 ) ;
#198 = EDGE_CURVE ( 'NONE', #72, #371, #262, .T. ) ;
#199 = DIRECTION ( 'NONE',  ( 0.0000000000000000000, 0.0000000000000000000, -1.000000000000000000 ) ) ;
#200 = AXIS2_PLACEMENT_3D ( 'NONE', #201, #58, #314 ) ;
#201 = CARTESIAN_POINT ( 'NONE',  ( 38.00000000000000000, -24.25000000000000000, 0.0000000000000000000 ) ) ;
#202 = EDGE_LOOP ( 'NONE', ( #105, #53, #332, #317 ) ) ;
#203 = CARTESIAN_POINT ( 'NONE',  ( -38.00000000000000000, 24.25000000000000000, 600.0000000000000000 ) ) ;
#204 = EDGE_CURVE ( 'NONE', #99, #279, #48, .T. ) ;
#205 = CARTESIAN_POINT ( 'NONE',  ( 0.0000000000000000000, -30.75000000000000000, -600.0000000000000000 ) ) ;
#206 = CARTESIAN_POINT ( 'NONE',  ( -38.00000000000000000, -24.25000000000000000, 600.0000000000000000 ) ) ;
#207 = CARTESIAN_POINT ( 'NONE',  ( 0.0000000000000000000, 0.0000000000000000000, -600.0000000000000000 ) ) ;
#208 = FACE_OUTER_BOUND ( 'NONE', #202, .T. ) ;
#209 = ORIENTED_EDGE ( 'NONE', *, *, #290, .F. ) ;
#210 =( NAMED_UNIT ( * ) SI_UNIT ( $, .STERADIAN. ) SOLID_ANGLE_UNIT ( ) );
#211 = SURFACE_STYLE_FILL_AREA ( #79 ) ;
#212 = DIRECTION ( 'NONE',  ( 0.0000000000000000000, 0.0000000000000000000, 1.000000000000000000 ) ) ;
#213 = VERTEX_POINT ( 'NONE', #89 ) ;
#214 = CARTESIAN_POINT ( 'NONE',  ( 38.00000000000000000, -24.25000000000000000, -600.0000000000000000 ) ) ;
#215 = CARTESIAN_POINT ( 'NONE',  ( 72.50000000000000000, 0.0000000000000000000, 600.0000000000000000 ) ) ;
#216 = CYLINDRICAL_SURFACE ( 'NONE', #251, 55.00000000000000000 ) ;
#217 = STYLED_ITEM ( 'NONE', ( #297 ), #90 ) ;
#218 = VERTEX_POINT ( 'NONE', #44 ) ;
#219 = ORIENTED_EDGE ( 'NONE', *, *, #238, .F. ) ;
#220 = EDGE_CURVE ( 'NONE', #225, #218, #301, .T. ) ;
#221 = CIRCLE ( 'NONE', #91, 55.00000000000000700 ) ;
#222 = VERTEX_POINT ( 'NONE', #187 ) ;
#223 = CARTESIAN_POINT ( 'NONE',  ( -38.00000000000000000, -24.25000000000000000, 0.0000000000000000000 ) ) ;
#224 = VECTOR ( 'NONE', #64, 1000.000000000000000 ) ;
#225 = VERTEX_POINT ( 'NONE', #334 ) ;
#226 = SURFACE_SIDE_STYLE ('',( #211 ) ) ;
#227 = FILL_AREA_STYLE_COLOUR ( '', #282 ) ;
#228 = LINE ( 'NONE', #348, #68 ) ;
#229 = CLOSED_SHELL ( 'NONE', ( #63, #320, #92, #346, #242, #240, #120, #171, #90, #304 ) ) ;
#230 = PRESENTATION_LAYER_ASSIGNMENT (  '', '', ( #217 ) ) ;
#231 = CARTESIAN_POINT ( 'NONE',  ( -38.00000000000000000, -24.25000000000000000, -600.0000000000000000 ) ) ;
#232 = PRODUCT_CONTEXT ( 'NONE', #347, 'mechanical' ) ;
#233 = SHAPE_DEFINITION_REPRESENTATION ( #327, #16 ) ;
#234 = CYLINDRICAL_SURFACE ( 'NONE', #98, 55.00000000000000000 ) ;
#235 = EDGE_LOOP ( 'NONE', ( #302, #110, #176, #366 ) ) ;
#236 = DIRECTION ( 'NONE',  ( -0.0000000000000000000, -0.0000000000000000000, -1.000000000000000000 ) ) ;
#237 = EDGE_CURVE ( 'NONE', #97, #25, #323, .T. ) ;
#238 = EDGE_CURVE ( 'NONE', #25, #279, #57, .T. ) ;
#239 = PLANE ( 'NONE',  #49 ) ;
#240 = ADVANCED_FACE ( 'NONE', ( #32 ), #118, .T. ) ;
#241 = EDGE_LOOP ( 'NONE', ( #51, #22, #47, #76 ) ) ;
#242 = ADVANCED_FACE ( 'NONE', ( #134 ), #131, .T. ) ;
#243 = DIRECTION ( 'NONE',  ( 0.0000000000000000000, -0.0000000000000000000, 1.000000000000000000 ) ) ;
#244 = STYLED_ITEM ( 'NONE', ( #137 ), #339 ) ;
#245 = SURFACE_STYLE_FILL_AREA ( #143 ) ;
#246 = CARTESIAN_POINT ( 'NONE',  ( -72.50000000000000000, -18.58398183685470100, 0.0000000000000000000 ) ) ;
#247 = EDGE_LOOP ( 'NONE', ( #367, #177, #325, #250 ) ) ;
#248 = DIRECTION ( 'NONE',  ( 0.0000000000000000000, 0.0000000000000000000, 1.000000000000000000 ) ) ;
#249 = ORIENTED_EDGE ( 'NONE', *, *, #179, .F. ) ;
#250 = ORIENTED_EDGE ( 'NONE', *, *, #158, .F. ) ;
#251 = AXIS2_PLACEMENT_3D ( 'NONE', #223, #248, #253 ) ;
#252 = UNCERTAINTY_MEASURE_WITH_UNIT (LENGTH_MEASURE( 1.000000000000000100E-005 ), #10, 'distance_accuracy_value', 'NONE');
#253 = DIRECTION ( 'NONE',  ( 1.000000000000000000, 0.0000000000000000000, 0.0000000000000000000 ) ) ;
#254 = ORIENTED_EDGE ( 'NONE', *, *, #132, .T. ) ;
#255 = APPLICATION_PROTOCOL_DEFINITION ( 'draft international standard', 'automotive_design', 1998, #347 ) ;
#256 = AXIS2_PLACEMENT_3D ( 'NONE', #365, #155, #156 ) ;
#257 = ORIENTED_EDGE ( 'NONE', *, *, #162, .F. ) ;
#258 = SURFACE_SIDE_STYLE ('',( #245 ) ) ;
#259 =( NAMED_UNIT ( * ) PLANE_ANGLE_UNIT ( ) SI_UNIT ( $, .RADIAN. ) );
#260 = SURFACE_STYLE_USAGE ( .BOTH. , #226 ) ;
#261 = CARTESIAN_POINT ( 'NONE',  ( -38.00000000000000000, 24.25000000000000000, -600.0000000000000000 ) ) ;
#262 = LINE ( 'NONE', #125, #1 ) ;
#263 = ORIENTED_EDGE ( 'NONE', *, *, #220, .T. ) ;
#264 = PRODUCT ( '6530466_CNAJF00', '6530466_CNAJF00', '', ( #232 ) ) ;
#265 = APPLICATION_CONTEXT ( 'automotive_design' ) ;
#266 = EDGE_CURVE ( 'NONE', #99, #270, #41, .T. ) ;
#267 = DIRECTION ( 'NONE',  ( 0.0000000000000000000, -0.0000000000000000000, 1.000000000000000000 ) ) ;
#268 = CARTESIAN_POINT ( 'NONE',  ( 72.50000000000000000, 0.0000000000000000000, 0.0000000000000000000 ) ) ;
#269 = VECTOR ( 'NONE', #321, 1000.000000000000000 ) ;
#270 = VERTEX_POINT ( 'NONE', #133 ) ;
#271 = DIRECTION ( 'NONE',  ( 0.0000000000000000000, -1.000000000000000000, -0.0000000000000000000 ) ) ;
#272 = EDGE_CURVE ( 'NONE', #72, #97, #188, .T. ) ;
#273 = CARTESIAN_POINT ( 'NONE',  ( 72.50000000000001400, 18.58398183685472600, 0.0000000000000000000 ) ) ;
#274 = CIRCLE ( 'NONE', #113, 55.00000000000000000 ) ;
#275 = ORIENTED_EDGE ( 'NONE', *, *, #364, .F. ) ;
#276 = CARTESIAN_POINT ( 'NONE',  ( 38.00000000000000000, 24.25000000000000000, -600.0000000000000000 ) ) ;
#277 = DIRECTION ( 'NONE',  ( 0.0000000000000000000, 0.0000000000000000000, 1.000000000000000000 ) ) ;
#278 = LINE ( 'NONE', #273, #121 ) ;
#279 = VERTEX_POINT ( 'NONE', #70 ) ;
#280 = AXIS2_PLACEMENT_3D ( 'NONE', #268, #8, #93 ) ;
#281 = DIRECTION ( 'NONE',  ( -0.0000000000000000000, 0.0000000000000000000, -1.000000000000000000 ) ) ;
#282 = COLOUR_RGB ( '',0.7019607843137254400, 0.7019607843137254400, 0.7019607843137254400 ) ;
#283 = PRESENTATION_LAYER_ASSIGNMENT (  '', '', ( #324 ) ) ;
#284 = FACE_OUTER_BOUND ( 'NONE', #29, .T. ) ;
#285 = EDGE_LOOP ( 'NONE', ( #164, #152, #154, #34, #161, #43, #2, #12 ) ) ;
#286 = DIRECTION ( 'NONE',  ( 1.000000000000000000, 0.0000000000000000000, 0.0000000000000000000 ) ) ;
#287 = FILL_AREA_STYLE_COLOUR ( '', #343 ) ;
#288 = UNCERTAINTY_MEASURE_WITH_UNIT (LENGTH_MEASURE( 1.000000000000000100E-005 ), #293, 'distance_accuracy_value', 'NONE');
#289 = FACE_OUTER_BOUND ( 'NONE', #241, .T. ) ;
#290 = EDGE_CURVE ( 'NONE', #97, #138, #337, .T. ) ;
#291 =( NAMED_UNIT ( * ) SI_UNIT ( $, .STERADIAN. ) SOLID_ANGLE_UNIT ( ) );
#292 = SURFACE_SIDE_STYLE ('',( #308 ) ) ;
#293 =( LENGTH_UNIT ( ) NAMED_UNIT ( * ) SI_UNIT ( .MILLI., .METRE. ) );
#294 = DIRECTION ( 'NONE',  ( 0.0000000000000000000, -0.0000000000000000000, -1.000000000000000000 ) ) ;
#295 = STYLED_ITEM ( 'NONE', ( #27 ), #16 ) ;
#296 = DIRECTION ( 'NONE',  ( 1.000000000000000000, 0.0000000000000000000, -0.0000000000000000000 ) ) ;
#297 = PRESENTATION_STYLE_ASSIGNMENT (( #174 ) ) ;
#298 = DIRECTION ( 'NONE',  ( 1.000000000000000000, 0.0000000000000000000, 0.0000000000000000000 ) ) ;
#299 = PLANE ( 'NONE',  #26 ) ;
#300 = AXIS2_PLACEMENT_3D ( 'NONE', #151, #39, #361 ) ;
#301 = LINE ( 'NONE', #246, #46 ) ;
#302 = ORIENTED_EDGE ( 'NONE', *, *, #55, .T. ) ;
#303 = DIRECTION ( 'NONE',  ( 0.0000000000000000000, -0.0000000000000000000, 1.000000000000000000 ) ) ;
#304 = ADVANCED_FACE ( 'NONE', ( #362 ), #65, .T. ) ;
#305 = DIRECTION ( 'NONE',  ( 1.000000000000000000, 0.0000000000000000000, 0.0000000000000000000 ) ) ;
#306 =( GEOMETRIC_REPRESENTATION_CONTEXT ( 3 ) GLOBAL_UNCERTAINTY_ASSIGNED_CONTEXT ( ( #252 ) ) GLOBAL_UNIT_ASSIGNED_CONTEXT ( ( #10, #4, #210 ) ) REPRESENTATION_CONTEXT ( 'NONE', 'WORKASPACE' ) );
#307 = VECTOR ( 'NONE', #199, 1000.000000000000000 ) ;
#308 = SURFACE_STYLE_FILL_AREA ( #85 ) ;
#309 = FACE_OUTER_BOUND ( 'NONE', #123, .T. ) ;
#310 = AXIS2_PLACEMENT_3D ( 'NONE', #261, #329, #298 ) ;
#311 =( GEOMETRIC_REPRESENTATION_CONTEXT ( 3 ) GLOBAL_UNCERTAINTY_ASSIGNED_CONTEXT ( ( #192 ) ) GLOBAL_UNIT_ASSIGNED_CONTEXT ( ( #144, #351, #173 ) ) REPRESENTATION_CONTEXT ( 'NONE', 'WORKASPACE' ) );
#312 = LINE ( 'NONE', #333, #344 ) ;
#313 = ORIENTED_EDGE ( 'NONE', *, *, #198, .T. ) ;
#314 = DIRECTION ( 'NONE',  ( 1.000000000000000000, 0.0000000000000000000, 0.0000000000000000000 ) ) ;
#315 = EDGE_CURVE ( 'NONE', #218, #72, #221, .T. ) ;
#316 = ORIENTED_EDGE ( 'NONE', *, *, #5, .F. ) ;
#317 = ORIENTED_EDGE ( 'NONE', *, *, #290, .T. ) ;
#318 = DIRECTION ( 'NONE',  ( 0.0000000000000000000, 0.0000000000000000000, 1.000000000000000000 ) ) ;
#319 = DIRECTION ( 'NONE',  ( -0.0000000000000000000, 1.000000000000000000, 0.0000000000000000000 ) ) ;
#320 = ADVANCED_FACE ( 'NONE', ( #350 ), #216, .T. ) ;
#321 = DIRECTION ( 'NONE',  ( 0.0000000000000000000, -1.000000000000000000, -0.0000000000000000000 ) ) ;
#322 = CARTESIAN_POINT ( 'NONE',  ( -38.00000000000000000, -30.75000000000000000, 600.0000000000000000 ) ) ;
#323 = CIRCLE ( 'NONE', #124, 55.00000000000000000 ) ;
#324 = STYLED_ITEM ( 'NONE', ( #340 ), #63 ) ;
#325 = ORIENTED_EDGE ( 'NONE', *, *, #100, .T. ) ;
#326 = PLANE ( 'NONE',  #280 ) ;
#327 = PRODUCT_DEFINITION_SHAPE ( 'NONE', 'NONE',  #354 ) ;
#328 = ORIENTED_EDGE ( 'NONE', *, *, #342, .F. ) ;
#329 = DIRECTION ( 'NONE',  ( 0.0000000000000000000, -0.0000000000000000000, 1.000000000000000000 ) ) ;
#330 = CARTESIAN_POINT ( 'NONE',  ( 0.0000000000000000000, 30.75000000000000000, 0.0000000000000000000 ) ) ;
#331 = SURFACE_STYLE_FILL_AREA ( #86 ) ;
#332 = ORIENTED_EDGE ( 'NONE', *, *, #237, .F. ) ;
#333 = CARTESIAN_POINT ( 'NONE',  ( 0.0000000000000000000, 30.75000000000000000, 600.0000000000000000 ) ) ;
#334 = CARTESIAN_POINT ( 'NONE',  ( -72.50000000000000000, -18.58398183685471800, -600.0000000000000000 ) ) ;
#335 =( GEOMETRIC_REPRESENTATION_CONTEXT ( 3 ) GLOBAL_UNCERTAINTY_ASSIGNED_CONTEXT ( ( #288 ) ) GLOBAL_UNIT_ASSIGNED_CONTEXT ( ( #293, #259, #291 ) ) REPRESENTATION_CONTEXT ( 'NONE', 'WORKASPACE' ) );
#336 = CARTESIAN_POINT ( 'NONE',  ( 37.99999999999999300, -30.75000000000000000, -600.0000000000000000 ) ) ;
#337 = LINE ( 'NONE', #159, #84 ) ;
#338 = DIRECTION ( 'NONE',  ( 0.0000000000000000000, -0.0000000000000000000, 1.000000000000000000 ) ) ;
#339 = MANIFOLD_SOLID_BREP ( 'Importiert1', #229 ) ;
#340 = PRESENTATION_STYLE_ASSIGNMENT (( #150 ) ) ;
#341 = DIRECTION ( 'NONE',  ( 0.0000000000000000000, -0.0000000000000000000, 1.000000000000000000 ) ) ;
#342 = EDGE_CURVE ( 'NONE', #116, #193, #157, .T. ) ;
#343 = COLOUR_RGB ( '',0.7529411764705882200, 0.7529411764705882200, 0.7529411764705882200 ) ;
#344 = VECTOR ( 'NONE', #305, 1000.000000000000000 ) ;
#345 = EDGE_LOOP ( 'NONE', ( #106, #209, #50, #313 ) ) ;
#346 = ADVANCED_FACE ( 'NONE', ( #289 ), #6, .T. ) ;
#347 = APPLICATION_CONTEXT ( 'automotive_design' ) ;
#348 = CARTESIAN_POINT ( 'NONE',  ( -72.50000000000001400, 18.58398183685471100, 0.0000000000000000000 ) ) ;
#349 = AXIS2_PLACEMENT_3D ( 'NONE', #231, #109, #30 ) ;
#350 = FACE_OUTER_BOUND ( 'NONE', #247, .T. ) ;
#351 =( NAMED_UNIT ( * ) PLANE_ANGLE_UNIT ( ) SI_UNIT ( $, .RADIAN. ) );
#352 = SURFACE_SIDE_STYLE ('',( #331 ) ) ;
#353 = DIRECTION ( 'NONE',  ( 0.0000000000000000000, 0.0000000000000000000, 1.000000000000000000 ) ) ;
#354 = PRODUCT_DEFINITION ( 'UNKNOWN', '', #69, #103 ) ;
#355 = LINE ( 'NONE', #56, #104 ) ;
#356 = VECTOR ( 'NONE', #296, 1000.000000000000000 ) ;
#357 = DIRECTION ( 'NONE',  ( 0.0000000000000000000, -1.000000000000000000, 0.0000000000000000000 ) ) ;
#358 = ORIENTED_EDGE ( 'NONE', *, *, #195, .F. ) ;
#359 = CARTESIAN_POINT ( 'NONE',  ( 37.99999999999999300, -30.75000000000000000, 600.0000000000000000 ) ) ;
#360 = EDGE_CURVE ( 'NONE', #25, #213, #52, .T. ) ;
#361 = DIRECTION ( 'NONE',  ( 0.0000000000000000000, 0.0000000000000000000, 1.000000000000000000 ) ) ;
#362 = FACE_OUTER_BOUND ( 'NONE', #235, .T. ) ;
#363 = CARTESIAN_POINT ( 'NONE',  ( -72.50000000000000000, 0.0000000000000000000, -600.0000000000000000 ) ) ;
#364 = EDGE_CURVE ( 'NONE', #222, #218, #196, .T. ) ;
#365 = CARTESIAN_POINT ( 'NONE',  ( 38.00000000000000000, -24.25000000000000000, 600.0000000000000000 ) ) ;
#366 = ORIENTED_EDGE ( 'NONE', *, *, #220, .F. ) ;
#367 = ORIENTED_EDGE ( 'NONE', *, *, #342, .T. ) ;
#368 = MECHANICAL_DESIGN_GEOMETRIC_PRESENTATION_REPRESENTATION (  '', ( #324 ), #181 ) ;
#369 = UNCERTAINTY_MEASURE_WITH_UNIT (LENGTH_MEASURE( 1.000000000000000100E-005 ), #117, 'distance_accuracy_value', 'NONE');
#370 = FACE_OUTER_BOUND ( 'NONE', #345, .T. ) ;
#371 = VERTEX_POINT ( 'NONE', #172 ) ;
#372 = EDGE_CURVE ( 'NONE', #213, #38, #355, .T. ) ;
ENDSEC;
END-ISO-10303-21;
