ISO-10303-21;
HEADER;
FILE_DESCRIPTION (( 'STEP AP214' ),
    '1' );
FILE_NAME ('6530454',
    '2019-01-31T12:11:27',
    ( '' ),
    ('JUGARD+KÜNSTNER GmbH'),
    'SwSTEP 2.0',
    'SolidWorks 2017',
    '' );
FILE_SCHEMA (( 'AUTOMOTIVE_DESIGN' ));
ENDSEC;

DATA;
#1 = CIRCLE ( 'NONE', #65, 55.00000000000000000 ) ;
#2 = AXIS2_PLACEMENT_3D ( 'NONE', #252, #164, #224 ) ;
#3 = EDGE_CURVE ( 'NONE', #79, #210, #47, .T. ) ;
#4 = SHAPE_DEFINITION_REPRESENTATION ( #49, #72 ) ;
#5 = DIRECTION ( 'NONE',  ( 1.000000000000000000, 0.0000000000000000000, 0.0000000000000000000 ) ) ;
#6 = ORIENTED_EDGE ( 'NONE', *, *, #141, .T. ) ;
#7 = DIRECTION ( 'NONE',  ( 0.0000000000000000000, -0.0000000000000000000, 1.000000000000000000 ) ) ;
#8 = DIRECTION ( 'NONE',  ( 0.0000000000000000000, -1.000000000000000000, -0.0000000000000000000 ) ) ;
#9 = PRODUCT_DEFINITION_FORMATION_WITH_SPECIFIED_SOURCE ( 'ANY', '', #128, .NOT_KNOWN. ) ;
#10 = UNCERTAINTY_MEASURE_WITH_UNIT (LENGTH_MEASURE( 1.000000000000000100E-005 ), #308, 'distance_accuracy_value', 'NONE');
#11 = EDGE_LOOP ( 'NONE', ( #338, #346, #305, #189, #36, #130, #207, #233 ) ) ;
#12 = LINE ( 'NONE', #274, #310 ) ;
#13 = DIRECTION ( 'NONE',  ( 0.0000000000000000000, -0.0000000000000000000, 1.000000000000000000 ) ) ;
#14 = EDGE_CURVE ( 'NONE', #162, #31, #106, .T. ) ;
#15 = DIRECTION ( 'NONE',  ( 1.000000000000000000, 0.0000000000000000000, 0.0000000000000000000 ) ) ;
#16 = DIRECTION ( 'NONE',  ( 0.0000000000000000000, 0.0000000000000000000, 1.000000000000000000 ) ) ;
#17 =( NAMED_UNIT ( * ) PLANE_ANGLE_UNIT ( ) SI_UNIT ( $, .RADIAN. ) );
#18 = ORIENTED_EDGE ( 'NONE', *, *, #253, .T. ) ;
#19 = VERTEX_POINT ( 'NONE', #61 ) ;
#20 = DIRECTION ( 'NONE',  ( 1.000000000000000000, 0.0000000000000000000, 0.0000000000000000000 ) ) ;
#21 = CARTESIAN_POINT ( 'NONE',  ( 38.00000000000000000, 24.25000000000000000, -600.0000000000000000 ) ) ;
#22 = SURFACE_STYLE_FILL_AREA ( #302 ) ;
#23 = PLANE ( 'NONE',  #2 ) ;
#24 =( LENGTH_UNIT ( ) NAMED_UNIT ( * ) SI_UNIT ( .MILLI., .METRE. ) );
#25 = SURFACE_SIDE_STYLE ('',( #271 ) ) ;
#26 = EDGE_CURVE ( 'NONE', #195, #162, #260, .T. ) ;
#27 = APPLICATION_CONTEXT ( 'automotive_design' ) ;
#28 = VERTEX_POINT ( 'NONE', #322 ) ;
#29 = ADVANCED_FACE ( 'NONE', ( #254 ), #320, .T. ) ;
#30 = ORIENTED_EDGE ( 'NONE', *, *, #97, .F. ) ;
#31 = VERTEX_POINT ( 'NONE', #326 ) ;
#32 = AXIS2_PLACEMENT_3D ( 'NONE', #178, #115, #5 ) ;
#33 = ORIENTED_EDGE ( 'NONE', *, *, #243, .F. ) ;
#34 = VECTOR ( 'NONE', #142, 1000.000000000000000 ) ;
#35 = DIRECTION ( 'NONE',  ( 1.000000000000000000, 0.0000000000000000000, -0.0000000000000000000 ) ) ;
#36 = ORIENTED_EDGE ( 'NONE', *, *, #295, .F. ) ;
#37 = EDGE_CURVE ( 'NONE', #28, #182, #333, .T. ) ;
#38 = DIRECTION ( 'NONE',  ( -1.000000000000000000, -0.0000000000000000000, -0.0000000000000000000 ) ) ;
#39 = CARTESIAN_POINT ( 'NONE',  ( 0.0000000000000000000, 30.75000000000000000, 50.00000000000000000 ) ) ;
#40 = PRESENTATION_LAYER_ASSIGNMENT (  '', '', ( #282 ) ) ;
#41 = CARTESIAN_POINT ( 'NONE',  ( 72.50000000000000000, -18.58398183685470100, 0.0000000000000000000 ) ) ;
#42 = LINE ( 'NONE', #330, #238 ) ;
#43 = DIRECTION ( 'NONE',  ( 0.0000000000000000000, 0.0000000000000000000, -1.000000000000000000 ) ) ;
#44 = CARTESIAN_POINT ( 'NONE',  ( 0.0000000000000000000, 0.0000000000000000000, 50.00000000000000000 ) ) ;
#45 = DIRECTION ( 'NONE',  ( 1.000000000000000000, 3.532527805625497900E-015, 0.0000000000000000000 ) ) ;
#46 = ORIENTED_EDGE ( 'NONE', *, *, #76, .F. ) ;
#47 = LINE ( 'NONE', #293, #347 ) ;
#48 = SURFACE_STYLE_USAGE ( .BOTH. , #357 ) ;
#49 = PRODUCT_DEFINITION_SHAPE ( 'NONE', 'NONE',  #362 ) ;
#50 = DIRECTION ( 'NONE',  ( -0.0000000000000000000, -0.0000000000000000000, -1.000000000000000000 ) ) ;
#51 = ORIENTED_EDGE ( 'NONE', *, *, #364, .T. ) ;
#52 = VECTOR ( 'NONE', #38, 1000.000000000000000 ) ;
#53 =( LENGTH_UNIT ( ) NAMED_UNIT ( * ) SI_UNIT ( .MILLI., .METRE. ) );
#54 = ADVANCED_FACE ( 'NONE', ( #85 ), #173, .T. ) ;
#55 = DIRECTION ( 'NONE',  ( 0.0000000000000000000, -1.000000000000000000, 0.0000000000000000000 ) ) ;
#56 = EDGE_CURVE ( 'NONE', #372, #160, #42, .T. ) ;
#57 =( NAMED_UNIT ( * ) PLANE_ANGLE_UNIT ( ) SI_UNIT ( $, .RADIAN. ) );
#58 = ORIENTED_EDGE ( 'NONE', *, *, #253, .F. ) ;
#59 = VERTEX_POINT ( 'NONE', #67 ) ;
#60 = LINE ( 'NONE', #183, #144 ) ;
#61 = CARTESIAN_POINT ( 'NONE',  ( -72.50000000000000000, -18.58398183685471800, 50.00000000000000000 ) ) ;
#62 = LINE ( 'NONE', #119, #299 ) ;
#63 = ORIENTED_EDGE ( 'NONE', *, *, #255, .F. ) ;
#64 = DIRECTION ( 'NONE',  ( 1.000000000000000000, 0.0000000000000000000, 0.0000000000000000000 ) ) ;
#65 = AXIS2_PLACEMENT_3D ( 'NONE', #21, #220, #20 ) ;
#66 = CARTESIAN_POINT ( 'NONE',  ( 72.50000000000000000, 0.0000000000000000000, 0.0000000000000000000 ) ) ;
#67 = CARTESIAN_POINT ( 'NONE',  ( 37.99999999999999300, -30.75000000000000000, -600.0000000000000000 ) ) ;
#68 = DIRECTION ( 'NONE',  ( 0.0000000000000000000, 0.0000000000000000000, 1.000000000000000000 ) ) ;
#69 = FACE_OUTER_BOUND ( 'NONE', #327, .T. ) ;
#70 = ORIENTED_EDGE ( 'NONE', *, *, #197, .T. ) ;
#71 = DIRECTION ( 'NONE',  ( 0.0000000000000000000, 0.0000000000000000000, 1.000000000000000000 ) ) ;
#72 = ADVANCED_BREP_SHAPE_REPRESENTATION ( '6530454_CNAJF00', ( #206, #348 ), #336 ) ;
#73 = CARTESIAN_POINT ( 'NONE',  ( -72.50000000000001400, 18.58398183685471800, -600.0000000000000000 ) ) ;
#74 = CIRCLE ( 'NONE', #87, 55.00000000000000000 ) ;
#75 = CARTESIAN_POINT ( 'NONE',  ( 38.00000000000000000, -24.25000000000000000, 0.0000000000000000000 ) ) ;
#76 = EDGE_CURVE ( 'NONE', #31, #28, #259, .T. ) ;
#77 = AXIS2_PLACEMENT_3D ( 'NONE', #158, #337, #334 ) ;
#78 = FILL_AREA_STYLE ('',( #317 ) ) ;
#79 = VERTEX_POINT ( 'NONE', #157 ) ;
#80 = VECTOR ( 'NONE', #219, 1000.000000000000000 ) ;
#81 = CARTESIAN_POINT ( 'NONE',  ( 38.00000000000000000, -24.25000000000000000, 50.00000000000000000 ) ) ;
#82 = ORIENTED_EDGE ( 'NONE', *, *, #279, .F. ) ;
#83 = AXIS2_PLACEMENT_3D ( 'NONE', #272, #92, #91 ) ;
#84 = EDGE_LOOP ( 'NONE', ( #203, #86, #352, #118 ) ) ;
#85 = FACE_OUTER_BOUND ( 'NONE', #145, .T. ) ;
#86 = ORIENTED_EDGE ( 'NONE', *, *, #156, .F. ) ;
#87 = AXIS2_PLACEMENT_3D ( 'NONE', #96, #192, #223 ) ;
#88 = UNCERTAINTY_MEASURE_WITH_UNIT (LENGTH_MEASURE( 1.000000000000000100E-005 ), #24, 'distance_accuracy_value', 'NONE');
#89 = FACE_OUTER_BOUND ( 'NONE', #167, .T. ) ;
#90 = FACE_OUTER_BOUND ( 'NONE', #123, .T. ) ;
#91 = DIRECTION ( 'NONE',  ( 1.000000000000000000, 0.0000000000000000000, 0.0000000000000000000 ) ) ;
#92 = DIRECTION ( 'NONE',  ( 0.0000000000000000000, -0.0000000000000000000, 1.000000000000000000 ) ) ;
#93 = PRESENTATION_LAYER_ASSIGNMENT (  '', '', ( #292 ) ) ;
#94 = MECHANICAL_DESIGN_GEOMETRIC_PRESENTATION_REPRESENTATION (  '', ( #298 ), #114 ) ;
#95 = VECTOR ( 'NONE', #209, 1000.000000000000000 ) ;
#96 = CARTESIAN_POINT ( 'NONE',  ( 38.00000000000000000, 24.25000000000000000, 50.00000000000000000 ) ) ;
#97 = EDGE_CURVE ( 'NONE', #19, #79, #248, .T. ) ;
#98 = DIRECTION ( 'NONE',  ( -0.0000000000000000000, -0.0000000000000000000, -1.000000000000000000 ) ) ;
#99 = ORIENTED_EDGE ( 'NONE', *, *, #14, .F. ) ;
#100 = SURFACE_STYLE_USAGE ( .BOTH. , #281 ) ;
#101 = EDGE_CURVE ( 'NONE', #221, #110, #60, .T. ) ;
#102 = ADVANCED_FACE ( 'NONE', ( #350 ), #213, .T. ) ;
#103 = CARTESIAN_POINT ( 'NONE',  ( -72.50000000000000000, 0.0000000000000000000, 0.0000000000000000000 ) ) ;
#104 = ADVANCED_FACE ( 'NONE', ( #168 ), #356, .F. ) ;
#105 = ORIENTED_EDGE ( 'NONE', *, *, #328, .F. ) ;
#106 = CIRCLE ( 'NONE', #32, 55.00000000000000000 ) ;
#107 = DIRECTION ( 'NONE',  ( 0.0000000000000000000, 0.0000000000000000000, 1.000000000000000000 ) ) ;
#108 = AXIS2_PLACEMENT_3D ( 'NONE', #81, #312, #313 ) ;
#109 = ORIENTED_EDGE ( 'NONE', *, *, #156, .T. ) ;
#110 = VERTEX_POINT ( 'NONE', #241 ) ;
#111 = MECHANICAL_DESIGN_GEOMETRIC_PRESENTATION_REPRESENTATION (  '', ( #292 ), #139 ) ;
#112 = CYLINDRICAL_SURFACE ( 'NONE', #120, 55.00000000000000000 ) ;
#113 = DIRECTION ( 'NONE',  ( 0.0000000000000000000, -0.0000000000000000000, -1.000000000000000000 ) ) ;
#114 =( GEOMETRIC_REPRESENTATION_CONTEXT ( 3 ) GLOBAL_UNCERTAINTY_ASSIGNED_CONTEXT ( ( #10 ) ) GLOBAL_UNIT_ASSIGNED_CONTEXT ( ( #308, #135, #340 ) ) REPRESENTATION_CONTEXT ( 'NONE', 'WORKASPACE' ) );
#115 = DIRECTION ( 'NONE',  ( 0.0000000000000000000, 0.0000000000000000000, 1.000000000000000000 ) ) ;
#116 = ORIENTED_EDGE ( 'NONE', *, *, #101, .T. ) ;
#117 = COLOUR_RGB ( '',1.000000000000000000, 1.000000000000000000, 0.5999999999999999800 ) ;
#118 = ORIENTED_EDGE ( 'NONE', *, *, #3, .T. ) ;
#119 = CARTESIAN_POINT ( 'NONE',  ( 37.99999999999999300, -30.75000000000000000, 0.0000000000000000000 ) ) ;
#120 = AXIS2_PLACEMENT_3D ( 'NONE', #244, #16, #155 ) ;
#121 = CARTESIAN_POINT ( 'NONE',  ( 37.99999999999999300, -30.75000000000000000, 50.00000000000000000 ) ) ;
#122 = DIRECTION ( 'NONE',  ( 1.000000000000000000, 0.0000000000000000000, 0.0000000000000000000 ) ) ;
#123 = EDGE_LOOP ( 'NONE', ( #18, #70, #267, #321 ) ) ;
#124 = UNCERTAINTY_MEASURE_WITH_UNIT (LENGTH_MEASURE( 1.000000000000000100E-005 ), #53, 'distance_accuracy_value', 'NONE');
#125 = LINE ( 'NONE', #41, #358 ) ;
#126 = CARTESIAN_POINT ( 'NONE',  ( -72.50000000000001400, 18.58398183685471100, 0.0000000000000000000 ) ) ;
#127 = DIRECTION ( 'NONE',  ( -0.0000000000000000000, 0.0000000000000000000, -1.000000000000000000 ) ) ;
#128 = PRODUCT ( '6530454_CNAJF00', '6530454_CNAJF00', '', ( #166 ) ) ;
#129 = CARTESIAN_POINT ( 'NONE',  ( -72.50000000000000000, -18.58398183685470100, 0.0000000000000000000 ) ) ;
#130 = ORIENTED_EDGE ( 'NONE', *, *, #243, .T. ) ;
#131 = PRESENTATION_STYLE_ASSIGNMENT (( #230 ) ) ;
#132 = AXIS2_PLACEMENT_3D ( 'NONE', #75, #107, #143 ) ;
#133 = EDGE_LOOP ( 'NONE', ( #294, #351, #51, #152 ) ) ;
#134 = DIRECTION ( 'NONE',  ( 0.0000000000000000000, -1.000000000000000000, -0.0000000000000000000 ) ) ;
#135 =( NAMED_UNIT ( * ) PLANE_ANGLE_UNIT ( ) SI_UNIT ( $, .RADIAN. ) );
#136 = DIRECTION ( 'NONE',  ( -1.000000000000000000, 0.0000000000000000000, 0.0000000000000000000 ) ) ;
#137 = FACE_OUTER_BOUND ( 'NONE', #133, .T. ) ;
#138 = VECTOR ( 'NONE', #222, 1000.000000000000000 ) ;
#139 =( GEOMETRIC_REPRESENTATION_CONTEXT ( 3 ) GLOBAL_UNCERTAINTY_ASSIGNED_CONTEXT ( ( #88 ) ) GLOBAL_UNIT_ASSIGNED_CONTEXT ( ( #24, #57, #343 ) ) REPRESENTATION_CONTEXT ( 'NONE', 'WORKASPACE' ) );
#140 = DIRECTION ( 'NONE',  ( 0.0000000000000000000, 0.0000000000000000000, 1.000000000000000000 ) ) ;
#141 = EDGE_CURVE ( 'NONE', #110, #210, #208, .T. ) ;
#142 = DIRECTION ( 'NONE',  ( 1.000000000000000000, 0.0000000000000000000, -0.0000000000000000000 ) ) ;
#143 = DIRECTION ( 'NONE',  ( 1.000000000000000000, 0.0000000000000000000, 0.0000000000000000000 ) ) ;
#144 = VECTOR ( 'NONE', #8, 1000.000000000000000 ) ;
#145 = EDGE_LOOP ( 'NONE', ( #6, #200, #30, #247 ) ) ;
#146 = PRODUCT_RELATED_PRODUCT_CATEGORY ( 'part', '', ( #128 ) ) ;
#147 = AXIS2_PLACEMENT_3D ( 'NONE', #179, #7, #296 ) ;
#148 = LINE ( 'NONE', #39, #315 ) ;
#149 = CARTESIAN_POINT ( 'NONE',  ( 72.50000000000000000, 0.0000000000000000000, -600.0000000000000000 ) ) ;
#150 = VERTEX_POINT ( 'NONE', #121 ) ;
#151 = FACE_OUTER_BOUND ( 'NONE', #11, .T. ) ;
#152 = ORIENTED_EDGE ( 'NONE', *, *, #328, .T. ) ;
#153 = CARTESIAN_POINT ( 'NONE',  ( -38.00000000000000000, 24.25000000000000000, 0.0000000000000000000 ) ) ;
#154 = LINE ( 'NONE', #129, #204 ) ;
#155 = DIRECTION ( 'NONE',  ( 1.000000000000000000, 0.0000000000000000000, 0.0000000000000000000 ) ) ;
#156 = EDGE_CURVE ( 'NONE', #150, #59, #62, .T. ) ;
#157 = CARTESIAN_POINT ( 'NONE',  ( -38.00000000000000000, -30.75000000000000000, 50.00000000000000000 ) ) ;
#158 = CARTESIAN_POINT ( 'NONE',  ( -38.00000000000000000, -24.25000000000000000, -600.0000000000000000 ) ) ;
#159 = EDGE_CURVE ( 'NONE', #182, #319, #148, .T. ) ;
#160 = VERTEX_POINT ( 'NONE', #186 ) ;
#161 = LINE ( 'NONE', #126, #80 ) ;
#162 = VERTEX_POINT ( 'NONE', #300 ) ;
#163 = PLANE ( 'NONE',  #275 ) ;
#164 = DIRECTION ( 'NONE',  ( -0.0000000000000000000, 1.000000000000000000, 0.0000000000000000000 ) ) ;
#165 =( LENGTH_UNIT ( ) NAMED_UNIT ( * ) SI_UNIT ( .MILLI., .METRE. ) );
#166 = PRODUCT_CONTEXT ( 'NONE', #283, 'mechanical' ) ;
#167 = EDGE_LOOP ( 'NONE', ( #116, #309, #33, #191 ) ) ;
#168 = FACE_OUTER_BOUND ( 'NONE', #240, .T. ) ;
#169 = CARTESIAN_POINT ( 'NONE',  ( 72.50000000000000000, -18.58398183685471100, 50.00000000000000000 ) ) ;
#170 = ORIENTED_EDGE ( 'NONE', *, *, #205, .F. ) ;
#171 =( NAMED_UNIT ( * ) PLANE_ANGLE_UNIT ( ) SI_UNIT ( $, .RADIAN. ) );
#172 = STYLED_ITEM ( 'NONE', ( #131 ), #72 ) ;
#173 = CYLINDRICAL_SURFACE ( 'NONE', #239, 55.00000000000000700 ) ;
#174 = PRESENTATION_STYLE_ASSIGNMENT (( #288 ) ) ;
#175 = COLOUR_RGB ( '',0.7019607843137254400, 0.7019607843137254400, 0.7019607843137254400 ) ;
#176 = CLOSED_SHELL ( 'NONE', ( #318, #194, #104, #371, #284, #344, #102, #29, #363, #54 ) ) ;
#177 = AXIS2_PLACEMENT_3D ( 'NONE', #323, #269, #35 ) ;
#178 = CARTESIAN_POINT ( 'NONE',  ( 38.00000000000000000, -24.25000000000000000, -600.0000000000000000 ) ) ;
#179 = CARTESIAN_POINT ( 'NONE',  ( 38.00000000000000000, 24.25000000000000000, 0.0000000000000000000 ) ) ;
#180 = DIRECTION ( 'NONE',  ( 0.0000000000000000000, -0.0000000000000000000, 1.000000000000000000 ) ) ;
#181 = ORIENTED_EDGE ( 'NONE', *, *, #101, .F. ) ;
#182 = VERTEX_POINT ( 'NONE', #329 ) ;
#183 = CARTESIAN_POINT ( 'NONE',  ( -72.50000000000000000, 0.0000000000000000000, -600.0000000000000000 ) ) ;
#184 = AXIS2_PLACEMENT_3D ( 'NONE', #276, #98, #45 ) ;
#185 = UNCERTAINTY_MEASURE_WITH_UNIT (LENGTH_MEASURE( 1.000000000000000100E-005 ), #335, 'distance_accuracy_value', 'NONE');
#186 = CARTESIAN_POINT ( 'NONE',  ( 72.50000000000001400, 18.58398183685472600, 50.00000000000000000 ) ) ;
#187 = FILL_AREA_STYLE_COLOUR ( '', #175 ) ;
#188 = CARTESIAN_POINT ( 'NONE',  ( -38.00000000000000000, 24.25000000000000000, -600.0000000000000000 ) ) ;
#189 = ORIENTED_EDGE ( 'NONE', *, *, #159, .F. ) ;
#190 = PRESENTATION_LAYER_ASSIGNMENT (  '', '', ( #172 ) ) ;
#191 = ORIENTED_EDGE ( 'NONE', *, *, #197, .F. ) ;
#192 = DIRECTION ( 'NONE',  ( 0.0000000000000000000, -0.0000000000000000000, 1.000000000000000000 ) ) ;
#193 = CARTESIAN_POINT ( 'NONE',  ( 72.50000000000001400, 18.58398183685472600, 0.0000000000000000000 ) ) ;
#194 = ADVANCED_FACE ( 'NONE', ( #90 ), #112, .T. ) ;
#195 = VERTEX_POINT ( 'NONE', #218 ) ;
#196 = PRESENTATION_STYLE_ASSIGNMENT (( #48 ) ) ;
#197 = EDGE_CURVE ( 'NONE', #221, #289, #161, .T. ) ;
#198 = FILL_AREA_STYLE_COLOUR ( '', #291 ) ;
#199 = EDGE_LOOP ( 'NONE', ( #314, #105, #264, #263 ) ) ;
#200 = ORIENTED_EDGE ( 'NONE', *, *, #3, .F. ) ;
#201 = PRESENTATION_LAYER_ASSIGNMENT (  '', '', ( #298 ) ) ;
#202 = CYLINDRICAL_SURFACE ( 'NONE', #132, 55.00000000000000000 ) ;
#203 = ORIENTED_EDGE ( 'NONE', *, *, #279, .T. ) ;
#204 = VECTOR ( 'NONE', #71, 1000.000000000000000 ) ;
#205 = EDGE_CURVE ( 'NONE', #372, #195, #125, .T. ) ;
#206 = MANIFOLD_SOLID_BREP ( 'Importiert1', #176 ) ;
#207 = ORIENTED_EDGE ( 'NONE', *, *, #97, .T. ) ;
#208 = CIRCLE ( 'NONE', #225, 55.00000000000000700 ) ;
#209 = DIRECTION ( 'NONE',  ( -0.0000000000000000000, 1.000000000000000000, 0.0000000000000000000 ) ) ;
#210 = VERTEX_POINT ( 'NONE', #306 ) ;
#211 = MECHANICAL_DESIGN_GEOMETRIC_PRESENTATION_REPRESENTATION (  '', ( #172 ), #235 ) ;
#212 = DIRECTION ( 'NONE',  ( 0.0000000000000000000, 0.0000000000000000000, -1.000000000000000000 ) ) ;
#213 = PLANE ( 'NONE',  #261 ) ;
#214 = EDGE_CURVE ( 'NONE', #319, #31, #217, .T. ) ;
#215 = DIRECTION ( 'NONE',  ( 1.000000000000000000, 0.0000000000000000000, 0.0000000000000000000 ) ) ;
#216 = LINE ( 'NONE', #341, #34 ) ;
#217 = LINE ( 'NONE', #256, #332 ) ;
#218 = CARTESIAN_POINT ( 'NONE',  ( 72.50000000000000000, -18.58398183685471100, -600.0000000000000000 ) ) ;
#219 = DIRECTION ( 'NONE',  ( 0.0000000000000000000, 0.0000000000000000000, 1.000000000000000000 ) ) ;
#220 = DIRECTION ( 'NONE',  ( 0.0000000000000000000, -0.0000000000000000000, 1.000000000000000000 ) ) ;
#221 = VERTEX_POINT ( 'NONE', #73 ) ;
#222 = DIRECTION ( 'NONE',  ( 1.000000000000000000, 0.0000000000000000000, -0.0000000000000000000 ) ) ;
#223 = DIRECTION ( 'NONE',  ( 1.000000000000000000, 0.0000000000000000000, 0.0000000000000000000 ) ) ;
#224 = DIRECTION ( 'NONE',  ( 0.0000000000000000000, -0.0000000000000000000, 1.000000000000000000 ) ) ;
#225 = AXIS2_PLACEMENT_3D ( 'NONE', #188, #13, #215 ) ;
#226 = CIRCLE ( 'NONE', #108, 55.00000000000000000 ) ;
#227 = SURFACE_STYLE_FILL_AREA ( #361 ) ;
#228 = DIRECTION ( 'NONE',  ( 0.0000000000000000000, 0.0000000000000000000, 1.000000000000000000 ) ) ;
#229 = PRODUCT_DEFINITION_CONTEXT ( 'detailed design', #27, 'design' ) ;
#230 = SURFACE_STYLE_USAGE ( .BOTH. , #25 ) ;
#231 =( NAMED_UNIT ( * ) SI_UNIT ( $, .STERADIAN. ) SOLID_ANGLE_UNIT ( ) );
#232 = SURFACE_SIDE_STYLE ('',( #258 ) ) ;
#233 = ORIENTED_EDGE ( 'NONE', *, *, #354, .T. ) ;
#234 =( NAMED_UNIT ( * ) SI_UNIT ( $, .STERADIAN. ) SOLID_ANGLE_UNIT ( ) );
#235 =( GEOMETRIC_REPRESENTATION_CONTEXT ( 3 ) GLOBAL_UNCERTAINTY_ASSIGNED_CONTEXT ( ( #124 ) ) GLOBAL_UNIT_ASSIGNED_CONTEXT ( ( #53, #345, #234 ) ) REPRESENTATION_CONTEXT ( 'NONE', 'WORKASPACE' ) );
#236 = CIRCLE ( 'NONE', #77, 55.00000000000000000 ) ;
#237 = ORIENTED_EDGE ( 'NONE', *, *, #141, .F. ) ;
#238 = VECTOR ( 'NONE', #246, 1000.000000000000000 ) ;
#239 = AXIS2_PLACEMENT_3D ( 'NONE', #153, #301, #64 ) ;
#240 = EDGE_LOOP ( 'NONE', ( #99, #349, #359, #82, #237, #181, #58, #46 ) ) ;
#241 = CARTESIAN_POINT ( 'NONE',  ( -72.50000000000000000, -18.58398183685471800, -600.0000000000000000 ) ) ;
#242 = DIRECTION ( 'NONE',  ( -0.0000000000000000000, 0.0000000000000000000, -1.000000000000000000 ) ) ;
#243 = EDGE_CURVE ( 'NONE', #289, #19, #12, .T. ) ;
#244 = CARTESIAN_POINT ( 'NONE',  ( -38.00000000000000000, -24.25000000000000000, 0.0000000000000000000 ) ) ;
#245 = CARTESIAN_POINT ( 'NONE',  ( -38.00000000000000000, 30.75000000000000000, 0.0000000000000000000 ) ) ;
#246 = DIRECTION ( 'NONE',  ( -0.0000000000000000000, 1.000000000000000000, 0.0000000000000000000 ) ) ;
#247 = ORIENTED_EDGE ( 'NONE', *, *, #311, .F. ) ;
#248 = CIRCLE ( 'NONE', #83, 55.00000000000000700 ) ;
#249 = VECTOR ( 'NONE', #180, 1000.000000000000000 ) ;
#250 = CARTESIAN_POINT ( 'NONE',  ( -72.50000000000001400, 18.58398183685471800, 50.00000000000000000 ) ) ;
#251 = CARTESIAN_POINT ( 'NONE',  ( 38.00000000000000000, 30.75000000000000000, 50.00000000000000000 ) ) ;
#252 = CARTESIAN_POINT ( 'NONE',  ( 0.0000000000000000000, 30.75000000000000000, 0.0000000000000000000 ) ) ;
#253 = EDGE_CURVE ( 'NONE', #28, #221, #236, .T. ) ;
#254 = FACE_OUTER_BOUND ( 'NONE', #278, .T. ) ;
#255 = EDGE_CURVE ( 'NONE', #150, #372, #74, .T. ) ;
#256 = CARTESIAN_POINT ( 'NONE',  ( 38.00000000000000000, 30.75000000000000000, 0.0000000000000000000 ) ) ;
#257 = DIRECTION ( 'NONE',  ( 0.0000000000000000000, -0.0000000000000000000, -1.000000000000000000 ) ) ;
#258 = SURFACE_STYLE_FILL_AREA ( #78 ) ;
#259 = LINE ( 'NONE', #353, #52 ) ;
#260 = LINE ( 'NONE', #149, #95 ) ;
#261 = AXIS2_PLACEMENT_3D ( 'NONE', #66, #15, #212 ) ;
#262 = PLANE ( 'NONE',  #355 ) ;
#263 = ORIENTED_EDGE ( 'NONE', *, *, #205, .T. ) ;
#264 = ORIENTED_EDGE ( 'NONE', *, *, #56, .F. ) ;
#265 = MECHANICAL_DESIGN_GEOMETRIC_PRESENTATION_REPRESENTATION (  '', ( #282 ), #342 ) ;
#266 = UNCERTAINTY_MEASURE_WITH_UNIT (LENGTH_MEASURE( 1.000000000000000100E-005 ), #165, 'distance_accuracy_value', 'NONE');
#267 = ORIENTED_EDGE ( 'NONE', *, *, #295, .T. ) ;
#268 = VECTOR ( 'NONE', #50, 1000.000000000000000 ) ;
#269 = DIRECTION ( 'NONE',  ( 0.0000000000000000000, 0.0000000000000000000, 1.000000000000000000 ) ) ;
#270 = EDGE_CURVE ( 'NONE', #59, #195, #1, .T. ) ;
#271 = SURFACE_STYLE_FILL_AREA ( #286 ) ;
#272 = CARTESIAN_POINT ( 'NONE',  ( -38.00000000000000000, 24.25000000000000000, 50.00000000000000000 ) ) ;
#273 = PRESENTATION_STYLE_ASSIGNMENT (( #100 ) ) ;
#274 = CARTESIAN_POINT ( 'NONE',  ( -72.50000000000000000, 0.0000000000000000000, 50.00000000000000000 ) ) ;
#275 = AXIS2_PLACEMENT_3D ( 'NONE', #44, #68, #303 ) ;
#276 = CARTESIAN_POINT ( 'NONE',  ( -38.00000000000000000, -24.25000000000000000, 50.00000000000000000 ) ) ;
#277 = ORIENTED_EDGE ( 'NONE', *, *, #37, .T. ) ;
#278 = EDGE_LOOP ( 'NONE', ( #339, #170, #63, #109 ) ) ;
#279 = EDGE_CURVE ( 'NONE', #210, #59, #304, .T. ) ;
#280 = FILL_AREA_STYLE_COLOUR ( '', #369 ) ;
#281 = SURFACE_SIDE_STYLE ('',( #227 ) ) ;
#282 = STYLED_ITEM ( 'NONE', ( #196 ), #206 ) ;
#283 = APPLICATION_CONTEXT ( 'automotive_design' ) ;
#284 = ADVANCED_FACE ( 'NONE', ( #151 ), #163, .T. ) ;
#285 = CIRCLE ( 'NONE', #184, 55.00000000000000000 ) ;
#286 = FILL_AREA_STYLE ('',( #198 ) ) ;
#287 = APPLICATION_PROTOCOL_DEFINITION ( 'draft international standard', 'automotive_design', 1998, #27 ) ;
#288 = SURFACE_STYLE_USAGE ( .BOTH. , #232 ) ;
#289 = VERTEX_POINT ( 'NONE', #250 ) ;
#290 = ORIENTED_EDGE ( 'NONE', *, *, #76, .T. ) ;
#291 = COLOUR_RGB ( '',0.7529411764705882200, 0.7529411764705882200, 0.7529411764705882200 ) ;
#292 = STYLED_ITEM ( 'NONE', ( #174 ), #363 ) ;
#293 = CARTESIAN_POINT ( 'NONE',  ( -38.00000000000000000, -30.75000000000000000, 0.0000000000000000000 ) ) ;
#294 = ORIENTED_EDGE ( 'NONE', *, *, #14, .T. ) ;
#295 = EDGE_CURVE ( 'NONE', #289, #182, #285, .T. ) ;
#296 = DIRECTION ( 'NONE',  ( 1.000000000000000000, 0.0000000000000000000, 0.0000000000000000000 ) ) ;
#297 = LINE ( 'NONE', #193, #268 ) ;
#298 = STYLED_ITEM ( 'NONE', ( #273 ), #318 ) ;
#299 = VECTOR ( 'NONE', #242, 1000.000000000000000 ) ;
#300 = CARTESIAN_POINT ( 'NONE',  ( 72.50000000000001400, 18.58398183685472600, -600.0000000000000000 ) ) ;
#301 = DIRECTION ( 'NONE',  ( 0.0000000000000000000, -0.0000000000000000000, 1.000000000000000000 ) ) ;
#302 = FILL_AREA_STYLE ('',( #187 ) ) ;
#303 = DIRECTION ( 'NONE',  ( 1.000000000000000000, 0.0000000000000000000, -0.0000000000000000000 ) ) ;
#304 = LINE ( 'NONE', #360, #138 ) ;
#305 = ORIENTED_EDGE ( 'NONE', *, *, #364, .F. ) ;
#306 = CARTESIAN_POINT ( 'NONE',  ( -38.00000000000000000, -30.75000000000000000, -600.0000000000000000 ) ) ;
#307 =( NAMED_UNIT ( * ) SI_UNIT ( $, .STERADIAN. ) SOLID_ANGLE_UNIT ( ) );
#308 =( LENGTH_UNIT ( ) NAMED_UNIT ( * ) SI_UNIT ( .MILLI., .METRE. ) );
#309 = ORIENTED_EDGE ( 'NONE', *, *, #311, .T. ) ;
#310 = VECTOR ( 'NONE', #134, 1000.000000000000000 ) ;
#311 = EDGE_CURVE ( 'NONE', #110, #19, #154, .T. ) ;
#312 = DIRECTION ( 'NONE',  ( -0.0000000000000000000, -0.0000000000000000000, -1.000000000000000000 ) ) ;
#313 = DIRECTION ( 'NONE',  ( 1.000000000000000000, 8.831319514063744800E-016, 0.0000000000000000000 ) ) ;
#314 = ORIENTED_EDGE ( 'NONE', *, *, #26, .T. ) ;
#315 = VECTOR ( 'NONE', #122, 1000.000000000000000 ) ;
#316 = ORIENTED_EDGE ( 'NONE', *, *, #159, .T. ) ;
#317 = FILL_AREA_STYLE_COLOUR ( '', #117 ) ;
#318 = ADVANCED_FACE ( 'NONE', ( #69 ), #23, .T. ) ;
#319 = VERTEX_POINT ( 'NONE', #251 ) ;
#320 = CYLINDRICAL_SURFACE ( 'NONE', #147, 55.00000000000000000 ) ;
#321 = ORIENTED_EDGE ( 'NONE', *, *, #37, .F. ) ;
#322 = CARTESIAN_POINT ( 'NONE',  ( -38.00000000000000000, 30.75000000000000000, -600.0000000000000000 ) ) ;
#323 = CARTESIAN_POINT ( 'NONE',  ( 0.0000000000000000000, 0.0000000000000000000, -600.0000000000000000 ) ) ;
#324 = AXIS2_PLACEMENT_3D ( 'NONE', #367, #55, #257 ) ;
#325 = FACE_OUTER_BOUND ( 'NONE', #84, .T. ) ;
#326 = CARTESIAN_POINT ( 'NONE',  ( 38.00000000000000000, 30.75000000000000000, -600.0000000000000000 ) ) ;
#327 = EDGE_LOOP ( 'NONE', ( #290, #277, #316, #331 ) ) ;
#328 = EDGE_CURVE ( 'NONE', #160, #162, #297, .T. ) ;
#329 = CARTESIAN_POINT ( 'NONE',  ( -38.00000000000000000, 30.75000000000000000, 50.00000000000000000 ) ) ;
#330 = CARTESIAN_POINT ( 'NONE',  ( 72.50000000000000000, 0.0000000000000000000, 50.00000000000000000 ) ) ;
#331 = ORIENTED_EDGE ( 'NONE', *, *, #214, .T. ) ;
#332 = VECTOR ( 'NONE', #127, 1000.000000000000000 ) ;
#333 = LINE ( 'NONE', #245, #249 ) ;
#334 = DIRECTION ( 'NONE',  ( 1.000000000000000000, 0.0000000000000000000, 0.0000000000000000000 ) ) ;
#335 =( LENGTH_UNIT ( ) NAMED_UNIT ( * ) SI_UNIT ( .MILLI., .METRE. ) );
#336 =( GEOMETRIC_REPRESENTATION_CONTEXT ( 3 ) GLOBAL_UNCERTAINTY_ASSIGNED_CONTEXT ( ( #266 ) ) GLOBAL_UNIT_ASSIGNED_CONTEXT ( ( #165, #171, #231 ) ) REPRESENTATION_CONTEXT ( 'NONE', 'WORKASPACE' ) );
#337 = DIRECTION ( 'NONE',  ( 0.0000000000000000000, 0.0000000000000000000, 1.000000000000000000 ) ) ;
#338 = ORIENTED_EDGE ( 'NONE', *, *, #255, .T. ) ;
#339 = ORIENTED_EDGE ( 'NONE', *, *, #270, .T. ) ;
#340 =( NAMED_UNIT ( * ) SI_UNIT ( $, .STERADIAN. ) SOLID_ANGLE_UNIT ( ) );
#341 = CARTESIAN_POINT ( 'NONE',  ( 0.0000000000000000000, -30.75000000000000000, 50.00000000000000000 ) ) ;
#342 =( GEOMETRIC_REPRESENTATION_CONTEXT ( 3 ) GLOBAL_UNCERTAINTY_ASSIGNED_CONTEXT ( ( #185 ) ) GLOBAL_UNIT_ASSIGNED_CONTEXT ( ( #335, #17, #307 ) ) REPRESENTATION_CONTEXT ( 'NONE', 'WORKASPACE' ) );
#343 =( NAMED_UNIT ( * ) SI_UNIT ( $, .STERADIAN. ) SOLID_ANGLE_UNIT ( ) );
#344 = ADVANCED_FACE ( 'NONE', ( #89 ), #262, .T. ) ;
#345 =( NAMED_UNIT ( * ) PLANE_ANGLE_UNIT ( ) SI_UNIT ( $, .RADIAN. ) );
#346 = ORIENTED_EDGE ( 'NONE', *, *, #56, .T. ) ;
#347 = VECTOR ( 'NONE', #113, 1000.000000000000000 ) ;
#348 = AXIS2_PLACEMENT_3D ( 'NONE', #370, #140, #368 ) ;
#349 = ORIENTED_EDGE ( 'NONE', *, *, #26, .F. ) ;
#350 = FACE_OUTER_BOUND ( 'NONE', #199, .T. ) ;
#351 = ORIENTED_EDGE ( 'NONE', *, *, #214, .F. ) ;
#352 = ORIENTED_EDGE ( 'NONE', *, *, #354, .F. ) ;
#353 = CARTESIAN_POINT ( 'NONE',  ( 0.0000000000000000000, 30.75000000000000000, -600.0000000000000000 ) ) ;
#354 = EDGE_CURVE ( 'NONE', #79, #150, #216, .T. ) ;
#355 = AXIS2_PLACEMENT_3D ( 'NONE', #103, #136, #228 ) ;
#356 = PLANE ( 'NONE',  #177 ) ;
#357 = SURFACE_SIDE_STYLE ('',( #22 ) ) ;
#358 = VECTOR ( 'NONE', #43, 1000.000000000000000 ) ;
#359 = ORIENTED_EDGE ( 'NONE', *, *, #270, .F. ) ;
#360 = CARTESIAN_POINT ( 'NONE',  ( 0.0000000000000000000, -30.75000000000000000, -600.0000000000000000 ) ) ;
#361 = FILL_AREA_STYLE ('',( #280 ) ) ;
#362 = PRODUCT_DEFINITION ( 'UNKNOWN', '', #9, #229 ) ;
#363 = ADVANCED_FACE ( 'NONE', ( #325 ), #365, .T. ) ;
#364 = EDGE_CURVE ( 'NONE', #319, #160, #226, .T. ) ;
#365 = PLANE ( 'NONE',  #324 ) ;
#366 = APPLICATION_PROTOCOL_DEFINITION ( 'draft international standard', 'automotive_design', 1998, #283 ) ;
#367 = CARTESIAN_POINT ( 'NONE',  ( 0.0000000000000000000, -30.75000000000000000, 0.0000000000000000000 ) ) ;
#368 = DIRECTION ( 'NONE',  ( 1.000000000000000000, 0.0000000000000000000, 0.0000000000000000000 ) ) ;
#369 = COLOUR_RGB ( '',0.5999999999999999800, 0.5999999999999999800, 0.5999999999999999800 ) ;
#370 = CARTESIAN_POINT ( 'NONE',  ( 0.0000000000000000000, 0.0000000000000000000, 0.0000000000000000000 ) ) ;
#371 = ADVANCED_FACE ( 'NONE', ( #137 ), #202, .T. ) ;
#372 = VERTEX_POINT ( 'NONE', #169 ) ;
ENDSEC;
END-ISO-10303-21;
