ISO-10303-21;
HEADER;
FILE_DESCRIPTION (( 'STEP AP214' ),
    '1' );
FILE_NAME ('6530453',
    '2019-01-31T12:11:31',
    ( '' ),
    ('JUGARD+KÜNSTNER GmbH'),
    'SwSTEP 2.0',
    'SolidWorks 2017',
    '' );
FILE_SCHEMA (( 'AUTOMOTIVE_DESIGN' ));
ENDSEC;

DATA;
#1 = AXIS2_PLACEMENT_3D ( 'NONE', #186, #370, #216 ) ;
#2 = AXIS2_PLACEMENT_3D ( 'NONE', #111, #19, #192 ) ;
#3 = LINE ( 'NONE', #263, #60 ) ;
#4 = ORIENTED_EDGE ( 'NONE', *, *, #119, .F. ) ;
#5 = EDGE_CURVE ( 'NONE', #207, #228, #81, .T. ) ;
#6 = FACE_OUTER_BOUND ( 'NONE', #142, .T. ) ;
#7 = DIRECTION ( 'NONE',  ( 0.0000000000000000000, 0.0000000000000000000, 1.000000000000000000 ) ) ;
#8 = AXIS2_PLACEMENT_3D ( 'NONE', #44, #249, #79 ) ;
#9 = DIRECTION ( 'NONE',  ( 0.0000000000000000000, -0.0000000000000000000, -1.000000000000000000 ) ) ;
#10 = EDGE_CURVE ( 'NONE', #321, #336, #145, .T. ) ;
#11 = LINE ( 'NONE', #236, #203 ) ;
#12 = DIRECTION ( 'NONE',  ( -0.0000000000000000000, 1.000000000000000000, 0.0000000000000000000 ) ) ;
#13 = CIRCLE ( 'NONE', #206, 55.00000000000000700 ) ;
#14 = MECHANICAL_DESIGN_GEOMETRIC_PRESENTATION_REPRESENTATION (  '', ( #221 ), #187 ) ;
#15 = ORIENTED_EDGE ( 'NONE', *, *, #289, .T. ) ;
#16 = CARTESIAN_POINT ( 'NONE',  ( 38.00000000000000000, -30.75000000000000000, 0.0000000000000000000 ) ) ;
#17 = SURFACE_SIDE_STYLE ('',( #46 ) ) ;
#18 = DIRECTION ( 'NONE',  ( 0.0000000000000000000, -1.000000000000000000, 0.0000000000000000000 ) ) ;
#19 = DIRECTION ( 'NONE',  ( 0.0000000000000000000, -0.0000000000000000000, 1.000000000000000000 ) ) ;
#20 = COLOUR_RGB ( '',0.7019607843137254400, 0.7019607843137254400, 0.7019607843137254400 ) ;
#21 = VERTEX_POINT ( 'NONE', #290 ) ;
#22 = DIRECTION ( 'NONE',  ( 0.0000000000000000000, -0.0000000000000000000, -1.000000000000000000 ) ) ;
#23 = DIRECTION ( 'NONE',  ( -0.0000000000000000000, -0.0000000000000000000, -1.000000000000000000 ) ) ;
#24 =( NAMED_UNIT ( * ) PLANE_ANGLE_UNIT ( ) SI_UNIT ( $, .RADIAN. ) );
#25 = LINE ( 'NONE', #334, #174 ) ;
#26 = ORIENTED_EDGE ( 'NONE', *, *, #322, .F. ) ;
#27 = DIRECTION ( 'NONE',  ( 0.0000000000000000000, 0.0000000000000000000, 1.000000000000000000 ) ) ;
#28 = PRESENTATION_LAYER_ASSIGNMENT (  '', '', ( #63 ) ) ;
#29 = COLOUR_RGB ( '',0.5999999999999999800, 0.5999999999999999800, 0.5999999999999999800 ) ;
#30 = VERTEX_POINT ( 'NONE', #121 ) ;
#31 = EDGE_CURVE ( 'NONE', #41, #321, #3, .T. ) ;
#32 = VERTEX_POINT ( 'NONE', #323 ) ;
#33 = DIRECTION ( 'NONE',  ( 0.0000000000000000000, -0.0000000000000000000, 1.000000000000000000 ) ) ;
#34 = CARTESIAN_POINT ( 'NONE',  ( -72.50000000000001400, -18.58398183685472600, 0.0000000000000000000 ) ) ;
#35 = ORIENTED_EDGE ( 'NONE', *, *, #171, .F. ) ;
#36 =( LENGTH_UNIT ( ) NAMED_UNIT ( * ) SI_UNIT ( .MILLI., .METRE. ) );
#37 = DIRECTION ( 'NONE',  ( 0.0000000000000000000, -0.0000000000000000000, 1.000000000000000000 ) ) ;
#38 = AXIS2_PLACEMENT_3D ( 'NONE', #151, #173, #328 ) ;
#39 = SURFACE_SIDE_STYLE ('',( #259 ) ) ;
#40 = CARTESIAN_POINT ( 'NONE',  ( 0.0000000000000000000, 30.75000000000000000, 25.00000000000000000 ) ) ;
#41 = VERTEX_POINT ( 'NONE', #62 ) ;
#42 = ADVANCED_FACE ( 'NONE', ( #139 ), #307, .T. ) ;
#43 = EDGE_CURVE ( 'NONE', #41, #361, #11, .T. ) ;
#44 = CARTESIAN_POINT ( 'NONE',  ( 0.0000000000000000000, 0.0000000000000000000, -600.0000000000000000 ) ) ;
#45 = CARTESIAN_POINT ( 'NONE',  ( -38.00000000000000000, -24.25000000000000000, -600.0000000000000000 ) ) ;
#46 = SURFACE_STYLE_FILL_AREA ( #246 ) ;
#47 = MECHANICAL_DESIGN_GEOMETRIC_PRESENTATION_REPRESENTATION (  '', ( #63 ), #232 ) ;
#48 = VERTEX_POINT ( 'NONE', #267 ) ;
#49 = APPLICATION_PROTOCOL_DEFINITION ( 'draft international standard', 'automotive_design', 1998, #314 ) ;
#50 = CIRCLE ( 'NONE', #167, 55.00000000000000700 ) ;
#51 = ORIENTED_EDGE ( 'NONE', *, *, #313, .T. ) ;
#52 = ORIENTED_EDGE ( 'NONE', *, *, #302, .F. ) ;
#53 = CARTESIAN_POINT ( 'NONE',  ( 72.50000000000000000, 0.0000000000000000000, 0.0000000000000000000 ) ) ;
#54 = UNCERTAINTY_MEASURE_WITH_UNIT (LENGTH_MEASURE( 1.000000000000000100E-005 ), #98, 'distance_accuracy_value', 'NONE');
#55 = DIRECTION ( 'NONE',  ( -1.000000000000000000, 0.0000000000000000000, 0.0000000000000000000 ) ) ;
#56 = PRESENTATION_STYLE_ASSIGNMENT (( #356 ) ) ;
#57 = ORIENTED_EDGE ( 'NONE', *, *, #275, .T. ) ;
#58 = AXIS2_PLACEMENT_3D ( 'NONE', #172, #7, #205 ) ;
#59 = FACE_OUTER_BOUND ( 'NONE', #204, .T. ) ;
#60 = VECTOR ( 'NONE', #33, 1000.000000000000000 ) ;
#61 = EDGE_LOOP ( 'NONE', ( #341, #218, #211, #184 ) ) ;
#62 = CARTESIAN_POINT ( 'NONE',  ( 72.49999999999998600, -18.58398183685472600, -600.0000000000000000 ) ) ;
#63 = STYLED_ITEM ( 'NONE', ( #157 ), #310 ) ;
#64 = CARTESIAN_POINT ( 'NONE',  ( 0.0000000000000000000, 0.0000000000000000000, 25.00000000000000000 ) ) ;
#65 = ORIENTED_EDGE ( 'NONE', *, *, #322, .T. ) ;
#66 = FILL_AREA_STYLE ('',( #181 ) ) ;
#67 = STYLED_ITEM ( 'NONE', ( #190 ), #185 ) ;
#68 = CARTESIAN_POINT ( 'NONE',  ( 38.00000000000000000, -30.75000000000000000, -600.0000000000000000 ) ) ;
#69 = EDGE_CURVE ( 'NONE', #21, #342, #230, .T. ) ;
#70 = CARTESIAN_POINT ( 'NONE',  ( -72.50000000000000000, 0.0000000000000000000, -600.0000000000000000 ) ) ;
#71 = VERTEX_POINT ( 'NONE', #272 ) ;
#72 = CARTESIAN_POINT ( 'NONE',  ( 38.00000000000000000, -24.25000000000000000, 0.0000000000000000000 ) ) ;
#73 = ADVANCED_FACE ( 'NONE', ( #138 ), #329, .T. ) ;
#74 = DIRECTION ( 'NONE',  ( -1.000000000000000000, -0.0000000000000000000, 0.0000000000000000000 ) ) ;
#75 = MECHANICAL_DESIGN_GEOMETRIC_PRESENTATION_REPRESENTATION (  '', ( #238 ), #93 ) ;
#76 = ORIENTED_EDGE ( 'NONE', *, *, #360, .T. ) ;
#77 =( LENGTH_UNIT ( ) NAMED_UNIT ( * ) SI_UNIT ( .MILLI., .METRE. ) );
#78 = ADVANCED_FACE ( 'NONE', ( #59 ), #156, .T. ) ;
#79 = DIRECTION ( 'NONE',  ( 1.000000000000000000, 0.0000000000000000000, -0.0000000000000000000 ) ) ;
#80 = LINE ( 'NONE', #242, #353 ) ;
#81 = CIRCLE ( 'NONE', #58, 55.00000000000000000 ) ;
#82 = DIRECTION ( 'NONE',  ( 1.000000000000000000, 0.0000000000000000000, 0.0000000000000000000 ) ) ;
#83 = ORIENTED_EDGE ( 'NONE', *, *, #338, .F. ) ;
#84 = APPLICATION_PROTOCOL_DEFINITION ( 'draft international standard', 'automotive_design', 1998, #344 ) ;
#85 = PRODUCT_RELATED_PRODUCT_CATEGORY ( 'part', '', ( #169 ) ) ;
#86 = DIRECTION ( 'NONE',  ( 1.000000000000000000, 0.0000000000000000000, 0.0000000000000000000 ) ) ;
#87 = CARTESIAN_POINT ( 'NONE',  ( 0.0000000000000000000, 0.0000000000000000000, 0.0000000000000000000 ) ) ;
#88 = VECTOR ( 'NONE', #357, 1000.000000000000000 ) ;
#89 = ORIENTED_EDGE ( 'NONE', *, *, #262, .F. ) ;
#90 = PRESENTATION_LAYER_ASSIGNMENT (  '', '', ( #67 ) ) ;
#91 = PRESENTATION_STYLE_ASSIGNMENT (( #118 ) ) ;
#92 = ORIENTED_EDGE ( 'NONE', *, *, #350, .F. ) ;
#93 =( GEOMETRIC_REPRESENTATION_CONTEXT ( 3 ) GLOBAL_UNCERTAINTY_ASSIGNED_CONTEXT ( ( #347 ) ) GLOBAL_UNIT_ASSIGNED_CONTEXT ( ( #252, #24, #340 ) ) REPRESENTATION_CONTEXT ( 'NONE', 'WORKASPACE' ) );
#94 =( NAMED_UNIT ( * ) PLANE_ANGLE_UNIT ( ) SI_UNIT ( $, .RADIAN. ) );
#95 = DIRECTION ( 'NONE',  ( 0.0000000000000000000, -1.000000000000000000, -0.0000000000000000000 ) ) ;
#96 = LINE ( 'NONE', #364, #366 ) ;
#97 = FACE_OUTER_BOUND ( 'NONE', #61, .T. ) ;
#98 =( LENGTH_UNIT ( ) NAMED_UNIT ( * ) SI_UNIT ( .MILLI., .METRE. ) );
#99 = ORIENTED_EDGE ( 'NONE', *, *, #289, .F. ) ;
#100 = ORIENTED_EDGE ( 'NONE', *, *, #110, .T. ) ;
#101 = CARTESIAN_POINT ( 'NONE',  ( -38.00000000000000000, 24.25000000000000000, -600.0000000000000000 ) ) ;
#102 = PRODUCT_DEFINITION ( 'UNKNOWN', '', #122, #147 ) ;
#103 = DIRECTION ( 'NONE',  ( 1.000000000000000000, 0.0000000000000000000, -0.0000000000000000000 ) ) ;
#104 = AXIS2_PLACEMENT_3D ( 'NONE', #131, #243, #161 ) ;
#105 = CARTESIAN_POINT ( 'NONE',  ( -38.00000000000000000, -24.25000000000000000, 0.0000000000000000000 ) ) ;
#106 = VECTOR ( 'NONE', #141, 1000.000000000000000 ) ;
#107 = ORIENTED_EDGE ( 'NONE', *, *, #43, .T. ) ;
#108 =( NAMED_UNIT ( * ) SI_UNIT ( $, .STERADIAN. ) SOLID_ANGLE_UNIT ( ) );
#109 = DIRECTION ( 'NONE',  ( -0.0000000000000000000, 0.0000000000000000000, 1.000000000000000000 ) ) ;
#110 = EDGE_CURVE ( 'NONE', #228, #48, #80, .T. ) ;
#111 = CARTESIAN_POINT ( 'NONE',  ( 38.00000000000000000, 24.25000000000000000, 0.0000000000000000000 ) ) ;
#112 = EDGE_LOOP ( 'NONE', ( #15, #57, #51, #170 ) ) ;
#113 = CARTESIAN_POINT ( 'NONE',  ( 38.00000000000000000, 24.25000000000000000, -600.0000000000000000 ) ) ;
#114 = SURFACE_SIDE_STYLE ('',( #148 ) ) ;
#115 = LINE ( 'NONE', #16, #287 ) ;
#116 = ORIENTED_EDGE ( 'NONE', *, *, #136, .T. ) ;
#117 = DIRECTION ( 'NONE',  ( -1.000000000000000000, -0.0000000000000000000, 0.0000000000000000000 ) ) ;
#118 = SURFACE_STYLE_USAGE ( .BOTH. , #114 ) ;
#119 = EDGE_CURVE ( 'NONE', #21, #48, #50, .T. ) ;
#120 = ORIENTED_EDGE ( 'NONE', *, *, #302, .T. ) ;
#121 = CARTESIAN_POINT ( 'NONE',  ( -72.50000000000001400, -18.58398183685472600, -600.0000000000000000 ) ) ;
#122 = PRODUCT_DEFINITION_FORMATION_WITH_SPECIFIED_SOURCE ( 'ANY', '', #169, .NOT_KNOWN. ) ;
#123 = EDGE_LOOP ( 'NONE', ( #89, #231, #191, #278, #223, #100, #4, #324 ) ) ;
#124 = DIRECTION ( 'NONE',  ( 1.000000000000000000, 0.0000000000000000000, 0.0000000000000000000 ) ) ;
#125 = LINE ( 'NONE', #271, #326 ) ;
#126 = ORIENTED_EDGE ( 'NONE', *, *, #262, .T. ) ;
#127 = DIRECTION ( 'NONE',  ( 1.000000000000000000, 0.0000000000000000000, 0.0000000000000000000 ) ) ;
#128 = AXIS2_PLACEMENT_3D ( 'NONE', #369, #18, #22 ) ;
#129 = CARTESIAN_POINT ( 'NONE',  ( -38.00000000000000000, 24.25000000000000000, 25.00000000000000000 ) ) ;
#130 = EDGE_LOOP ( 'NONE', ( #65, #251, #126, #348 ) ) ;
#131 = CARTESIAN_POINT ( 'NONE',  ( 38.00000000000000000, 24.25000000000000000, 25.00000000000000000 ) ) ;
#132 = DIRECTION ( 'NONE',  ( 0.0000000000000000000, 0.0000000000000000000, 1.000000000000000000 ) ) ;
#133 = CARTESIAN_POINT ( 'NONE',  ( -72.50000000000000000, 18.58398183685471100, 25.00000000000000000 ) ) ;
#134 = CARTESIAN_POINT ( 'NONE',  ( -38.00000000000000000, 30.75000000000000000, 25.00000000000000000 ) ) ;
#135 = CARTESIAN_POINT ( 'NONE',  ( 72.50000000000000000, 18.58398183685471800, -600.0000000000000000 ) ) ;
#136 = EDGE_CURVE ( 'NONE', #48, #30, #318, .T. ) ;
#137 = DIRECTION ( 'NONE',  ( 0.0000000000000000000, 0.0000000000000000000, 1.000000000000000000 ) ) ;
#138 = FACE_OUTER_BOUND ( 'NONE', #123, .T. ) ;
#139 = FACE_OUTER_BOUND ( 'NONE', #200, .T. ) ;
#140 = CARTESIAN_POINT ( 'NONE',  ( 72.49999999999998600, -18.58398183685472600, 25.00000000000000000 ) ) ;
#141 = DIRECTION ( 'NONE',  ( -1.000000000000000000, -0.0000000000000000000, -0.0000000000000000000 ) ) ;
#142 = EDGE_LOOP ( 'NONE', ( #107, #120, #301, #198 ) ) ;
#143 = PRESENTATION_LAYER_ASSIGNMENT (  '', '', ( #221 ) ) ;
#144 = LINE ( 'NONE', #226, #183 ) ;
#145 = LINE ( 'NONE', #351, #359 ) ;
#146 = VERTEX_POINT ( 'NONE', #179 ) ;
#147 = PRODUCT_DEFINITION_CONTEXT ( 'detailed design', #344, 'design' ) ;
#148 = SURFACE_STYLE_FILL_AREA ( #339 ) ;
#149 = CIRCLE ( 'NONE', #320, 55.00000000000000000 ) ;
#150 = EDGE_CURVE ( 'NONE', #336, #146, #175, .T. ) ;
#151 = CARTESIAN_POINT ( 'NONE',  ( 38.00000000000000000, -24.25000000000000000, 25.00000000000000000 ) ) ;
#152 = PLANE ( 'NONE',  #8 ) ;
#153 = VECTOR ( 'NONE', #297, 1000.000000000000000 ) ;
#154 = ORIENTED_EDGE ( 'NONE', *, *, #180, .T. ) ;
#155 = PRODUCT_DEFINITION_SHAPE ( 'NONE', 'NONE',  #102 ) ;
#156 = PLANE ( 'NONE',  #325 ) ;
#157 = PRESENTATION_STYLE_ASSIGNMENT (( #219 ) ) ;
#158 = LINE ( 'NONE', #70, #88 ) ;
#159 = PLANE ( 'NONE',  #128 ) ;
#160 = AXIS2_PLACEMENT_3D ( 'NONE', #53, #86, #222 ) ;
#161 = DIRECTION ( 'NONE',  ( 1.000000000000000000, 0.0000000000000000000, 0.0000000000000000000 ) ) ;
#162 = CYLINDRICAL_SURFACE ( 'NONE', #1, 55.00000000000000700 ) ;
#163 = FACE_OUTER_BOUND ( 'NONE', #130, .T. ) ;
#164 = VERTEX_POINT ( 'NONE', #68 ) ;
#165 = DIRECTION ( 'NONE',  ( 0.0000000000000000000, 0.0000000000000000000, 1.000000000000000000 ) ) ;
#166 = ORIENTED_EDGE ( 'NONE', *, *, #269, .T. ) ;
#167 = AXIS2_PLACEMENT_3D ( 'NONE', #129, #182, #354 ) ;
#168 = CIRCLE ( 'NONE', #104, 55.00000000000000000 ) ;
#169 = PRODUCT ( '6530453_CNAJF00', '6530453_CNAJF00', '', ( #286 ) ) ;
#170 = ORIENTED_EDGE ( 'NONE', *, *, #69, .T. ) ;
#171 = EDGE_CURVE ( 'NONE', #30, #342, #13, .T. ) ;
#172 = CARTESIAN_POINT ( 'NONE',  ( -38.00000000000000000, -24.25000000000000000, 25.00000000000000000 ) ) ;
#173 = DIRECTION ( 'NONE',  ( 0.0000000000000000000, 0.0000000000000000000, 1.000000000000000000 ) ) ;
#174 = VECTOR ( 'NONE', #305, 1000.000000000000000 ) ;
#175 = CIRCLE ( 'NONE', #38, 55.00000000000000000 ) ;
#176 = SURFACE_SIDE_STYLE ('',( #234 ) ) ;
#177 =( GEOMETRIC_REPRESENTATION_CONTEXT ( 3 ) GLOBAL_UNCERTAINTY_ASSIGNED_CONTEXT ( ( #194 ) ) GLOBAL_UNIT_ASSIGNED_CONTEXT ( ( #255, #197, #282 ) ) REPRESENTATION_CONTEXT ( 'NONE', 'WORKASPACE' ) );
#178 = ORIENTED_EDGE ( 'NONE', *, *, #43, .F. ) ;
#179 = CARTESIAN_POINT ( 'NONE',  ( 38.00000000000000000, 30.75000000000000000, 25.00000000000000000 ) ) ;
#180 = EDGE_CURVE ( 'NONE', #260, #30, #158, .T. ) ;
#181 = FILL_AREA_STYLE_COLOUR ( '', #29 ) ;
#182 = DIRECTION ( 'NONE',  ( -0.0000000000000000000, 0.0000000000000000000, -1.000000000000000000 ) ) ;
#183 = VECTOR ( 'NONE', #117, 1000.000000000000000 ) ;
#184 = ORIENTED_EDGE ( 'NONE', *, *, #269, .F. ) ;
#185 = MANIFOLD_SOLID_BREP ( 'Importiert1', #241 ) ;
#186 = CARTESIAN_POINT ( 'NONE',  ( -38.00000000000000000, 24.25000000000000000, 0.0000000000000000000 ) ) ;
#187 =( GEOMETRIC_REPRESENTATION_CONTEXT ( 3 ) GLOBAL_UNCERTAINTY_ASSIGNED_CONTEXT ( ( #209 ) ) GLOBAL_UNIT_ASSIGNED_CONTEXT ( ( #36, #94, #298 ) ) REPRESENTATION_CONTEXT ( 'NONE', 'WORKASPACE' ) );
#188 = DIRECTION ( 'NONE',  ( 1.000000000000000000, 0.0000000000000000000, 0.0000000000000000000 ) ) ;
#189 = LINE ( 'NONE', #244, #258 ) ;
#190 = PRESENTATION_STYLE_ASSIGNMENT (( #270 ) ) ;
#191 = ORIENTED_EDGE ( 'NONE', *, *, #150, .T. ) ;
#192 = DIRECTION ( 'NONE',  ( 1.000000000000000000, 0.0000000000000000000, 0.0000000000000000000 ) ) ;
#193 = CARTESIAN_POINT ( 'NONE',  ( -72.50000000000000000, 18.58398183685470100, 0.0000000000000000000 ) ) ;
#194 = UNCERTAINTY_MEASURE_WITH_UNIT (LENGTH_MEASURE( 1.000000000000000100E-005 ), #255, 'distance_accuracy_value', 'NONE');
#195 = LINE ( 'NONE', #40, #352 ) ;
#196 = ORIENTED_EDGE ( 'NONE', *, *, #202, .F. ) ;
#197 =( NAMED_UNIT ( * ) PLANE_ANGLE_UNIT ( ) SI_UNIT ( $, .RADIAN. ) );
#198 = ORIENTED_EDGE ( 'NONE', *, *, #31, .F. ) ;
#199 = CYLINDRICAL_SURFACE ( 'NONE', #2, 55.00000000000000000 ) ;
#200 = EDGE_LOOP ( 'NONE', ( #355, #196, #333, #52 ) ) ;
#201 = CARTESIAN_POINT ( 'NONE',  ( -38.00000000000000000, -30.75000000000000000, 0.0000000000000000000 ) ) ;
#202 = EDGE_CURVE ( 'NONE', #146, #32, #125, .T. ) ;
#203 = VECTOR ( 'NONE', #235, 1000.000000000000000 ) ;
#204 = EDGE_LOOP ( 'NONE', ( #315, #166, #308, #256 ) ) ;
#205 = DIRECTION ( 'NONE',  ( 1.000000000000000000, 0.0000000000000000000, 0.0000000000000000000 ) ) ;
#206 = AXIS2_PLACEMENT_3D ( 'NONE', #101, #208, #127 ) ;
#207 = VERTEX_POINT ( 'NONE', #134 ) ;
#208 = DIRECTION ( 'NONE',  ( 0.0000000000000000000, -0.0000000000000000000, 1.000000000000000000 ) ) ;
#209 = UNCERTAINTY_MEASURE_WITH_UNIT (LENGTH_MEASURE( 1.000000000000000100E-005 ), #36, 'distance_accuracy_value', 'NONE');
#210 = DIRECTION ( 'NONE',  ( 0.0000000000000000000, 0.0000000000000000000, 1.000000000000000000 ) ) ;
#211 = ORIENTED_EDGE ( 'NONE', *, *, #5, .F. ) ;
#212 = ADVANCED_FACE ( 'NONE', ( #250 ), #152, .F. ) ;
#213 = FILL_AREA_STYLE_COLOUR ( '', #20 ) ;
#214 = AXIS2_PLACEMENT_3D ( 'NONE', #105, #279, #337 ) ;
#215 = DIRECTION ( 'NONE',  ( 1.000000000000000000, 0.0000000000000000000, 0.0000000000000000000 ) ) ;
#216 = DIRECTION ( 'NONE',  ( 1.000000000000000000, 0.0000000000000000000, 0.0000000000000000000 ) ) ;
#217 = ADVANCED_FACE ( 'NONE', ( #163 ), #199, .T. ) ;
#218 = ORIENTED_EDGE ( 'NONE', *, *, #360, .F. ) ;
#219 = SURFACE_STYLE_USAGE ( .BOTH. , #17 ) ;
#220 =( NAMED_UNIT ( * ) PLANE_ANGLE_UNIT ( ) SI_UNIT ( $, .RADIAN. ) );
#221 = STYLED_ITEM ( 'NONE', ( #56 ), #78 ) ;
#222 = DIRECTION ( 'NONE',  ( 0.0000000000000000000, 0.0000000000000000000, -1.000000000000000000 ) ) ;
#223 = ORIENTED_EDGE ( 'NONE', *, *, #5, .T. ) ;
#224 = FILL_AREA_STYLE_COLOUR ( '', #306 ) ;
#225 = CARTESIAN_POINT ( 'NONE',  ( 0.0000000000000000000, -30.75000000000000000, 25.00000000000000000 ) ) ;
#226 = CARTESIAN_POINT ( 'NONE',  ( 0.0000000000000000000, 30.75000000000000000, -600.0000000000000000 ) ) ;
#227 = FACE_OUTER_BOUND ( 'NONE', #346, .T. ) ;
#228 = VERTEX_POINT ( 'NONE', #133 ) ;
#229 =( GEOMETRIC_REPRESENTATION_CONTEXT ( 3 ) GLOBAL_UNCERTAINTY_ASSIGNED_CONTEXT ( ( #54 ) ) GLOBAL_UNIT_ASSIGNED_CONTEXT ( ( #98, #220, #108 ) ) REPRESENTATION_CONTEXT ( 'NONE', 'WORKASPACE' ) );
#230 = LINE ( 'NONE', #201, #367 ) ;
#231 = ORIENTED_EDGE ( 'NONE', *, *, #10, .T. ) ;
#232 =( GEOMETRIC_REPRESENTATION_CONTEXT ( 3 ) GLOBAL_UNCERTAINTY_ASSIGNED_CONTEXT ( ( #274 ) ) GLOBAL_UNIT_ASSIGNED_CONTEXT ( ( #77, #277, #335 ) ) REPRESENTATION_CONTEXT ( 'NONE', 'WORKASPACE' ) );
#233 = CIRCLE ( 'NONE', #294, 55.00000000000000000 ) ;
#234 = SURFACE_STYLE_FILL_AREA ( #300 ) ;
#235 = DIRECTION ( 'NONE',  ( -0.0000000000000000000, 1.000000000000000000, 0.0000000000000000000 ) ) ;
#236 = CARTESIAN_POINT ( 'NONE',  ( 72.50000000000000000, 0.0000000000000000000, -600.0000000000000000 ) ) ;
#237 = FACE_OUTER_BOUND ( 'NONE', #112, .T. ) ;
#238 = STYLED_ITEM ( 'NONE', ( #91 ), #363 ) ;
#239 = CIRCLE ( 'NONE', #247, 55.00000000000000000 ) ;
#240 = VERTEX_POINT ( 'NONE', #309 ) ;
#241 = CLOSED_SHELL ( 'NONE', ( #310, #217, #212, #304, #73, #365, #78, #42, #358, #248 ) ) ;
#242 = CARTESIAN_POINT ( 'NONE',  ( -72.50000000000000000, 0.0000000000000000000, 25.00000000000000000 ) ) ;
#243 = DIRECTION ( 'NONE',  ( -0.0000000000000000000, 0.0000000000000000000, -1.000000000000000000 ) ) ;
#244 = CARTESIAN_POINT ( 'NONE',  ( 0.0000000000000000000, -30.75000000000000000, -600.0000000000000000 ) ) ;
#245 = ORIENTED_EDGE ( 'NONE', *, *, #171, .T. ) ;
#246 = FILL_AREA_STYLE ('',( #362 ) ) ;
#247 = AXIS2_PLACEMENT_3D ( 'NONE', #45, #132, #188 ) ;
#248 = ADVANCED_FACE ( 'NONE', ( #97 ), #331, .T. ) ;
#249 = DIRECTION ( 'NONE',  ( 0.0000000000000000000, 0.0000000000000000000, 1.000000000000000000 ) ) ;
#250 = FACE_OUTER_BOUND ( 'NONE', #264, .T. ) ;
#251 = ORIENTED_EDGE ( 'NONE', *, *, #31, .T. ) ;
#252 =( LENGTH_UNIT ( ) NAMED_UNIT ( * ) SI_UNIT ( .MILLI., .METRE. ) );
#253 = DIRECTION ( 'NONE',  ( 0.0000000000000000000, -0.0000000000000000000, 1.000000000000000000 ) ) ;
#254 = LINE ( 'NONE', #225, #106 ) ;
#255 =( LENGTH_UNIT ( ) NAMED_UNIT ( * ) SI_UNIT ( .MILLI., .METRE. ) );
#256 = ORIENTED_EDGE ( 'NONE', *, *, #202, .T. ) ;
#257 = EDGE_CURVE ( 'NONE', #240, #260, #239, .T. ) ;
#258 = VECTOR ( 'NONE', #215, 1000.000000000000000 ) ;
#259 = SURFACE_STYLE_FILL_AREA ( #66 ) ;
#260 = VERTEX_POINT ( 'NONE', #312 ) ;
#261 = PRESENTATION_LAYER_ASSIGNMENT (  '', '', ( #238 ) ) ;
#262 = EDGE_CURVE ( 'NONE', #321, #71, #168, .T. ) ;
#263 = CARTESIAN_POINT ( 'NONE',  ( 72.49999999999998600, -18.58398183685472900, 0.0000000000000000000 ) ) ;
#264 = EDGE_LOOP ( 'NONE', ( #92, #178, #26, #99, #35, #284, #349, #83 ) ) ;
#265 = CARTESIAN_POINT ( 'NONE',  ( 0.0000000000000000000, 30.75000000000000000, 0.0000000000000000000 ) ) ;
#266 = EDGE_CURVE ( 'NONE', #146, #207, #195, .T. ) ;
#267 = CARTESIAN_POINT ( 'NONE',  ( -72.50000000000001400, -18.58398183685472600, 25.00000000000000000 ) ) ;
#268 = EDGE_LOOP ( 'NONE', ( #245, #327, #292, #116 ) ) ;
#269 = EDGE_CURVE ( 'NONE', #240, #207, #96, .T. ) ;
#270 = SURFACE_STYLE_USAGE ( .BOTH. , #176 ) ;
#271 = CARTESIAN_POINT ( 'NONE',  ( 38.00000000000000000, 30.75000000000000000, 0.0000000000000000000 ) ) ;
#272 = CARTESIAN_POINT ( 'NONE',  ( 38.00000000000000000, -30.75000000000000000, 25.00000000000000000 ) ) ;
#273 = ORIENTED_EDGE ( 'NONE', *, *, #110, .F. ) ;
#274 = UNCERTAINTY_MEASURE_WITH_UNIT (LENGTH_MEASURE( 1.000000000000000100E-005 ), #77, 'distance_accuracy_value', 'NONE');
#275 = EDGE_CURVE ( 'NONE', #164, #71, #115, .T. ) ;
#276 = SHAPE_DEFINITION_REPRESENTATION ( #155, #363 ) ;
#277 =( NAMED_UNIT ( * ) PLANE_ANGLE_UNIT ( ) SI_UNIT ( $, .RADIAN. ) );
#278 = ORIENTED_EDGE ( 'NONE', *, *, #266, .T. ) ;
#279 = DIRECTION ( 'NONE',  ( 0.0000000000000000000, 0.0000000000000000000, 1.000000000000000000 ) ) ;
#280 = AXIS2_PLACEMENT_3D ( 'NONE', #316, #55, #137 ) ;
#281 = DIRECTION ( 'NONE',  ( 1.000000000000000000, 0.0000000000000000000, 0.0000000000000000000 ) ) ;
#282 =( NAMED_UNIT ( * ) SI_UNIT ( $, .STERADIAN. ) SOLID_ANGLE_UNIT ( ) );
#283 = PLANE ( 'NONE',  #280 ) ;
#284 = ORIENTED_EDGE ( 'NONE', *, *, #180, .F. ) ;
#285 = DIRECTION ( 'NONE',  ( 1.000000000000000000, 0.0000000000000000000, 0.0000000000000000000 ) ) ;
#286 = PRODUCT_CONTEXT ( 'NONE', #314, 'mechanical' ) ;
#287 = VECTOR ( 'NONE', #109, 1000.000000000000000 ) ;
#288 = AXIS2_PLACEMENT_3D ( 'NONE', #72, #210, #124 ) ;
#289 = EDGE_CURVE ( 'NONE', #342, #164, #189, .T. ) ;
#290 = CARTESIAN_POINT ( 'NONE',  ( -38.00000000000000000, -30.75000000000000000, 25.00000000000000000 ) ) ;
#291 = VECTOR ( 'NONE', #23, 1000.000000000000000 ) ;
#292 = ORIENTED_EDGE ( 'NONE', *, *, #119, .T. ) ;
#293 = DIRECTION ( 'NONE',  ( -0.0000000000000000000, 1.000000000000000000, 0.0000000000000000000 ) ) ;
#294 = AXIS2_PLACEMENT_3D ( 'NONE', #113, #253, #281 ) ;
#295 = COLOUR_RGB ( '',1.000000000000000000, 1.000000000000000000, 0.5999999999999999800 ) ;
#296 = ORIENTED_EDGE ( 'NONE', *, *, #136, .F. ) ;
#297 = DIRECTION ( 'NONE',  ( -0.0000000000000000000, 0.0000000000000000000, -1.000000000000000000 ) ) ;
#298 =( NAMED_UNIT ( * ) SI_UNIT ( $, .STERADIAN. ) SOLID_ANGLE_UNIT ( ) );
#299 = AXIS2_PLACEMENT_3D ( 'NONE', #87, #165, #285 ) ;
#300 = FILL_AREA_STYLE ('',( #213 ) ) ;
#301 = ORIENTED_EDGE ( 'NONE', *, *, #10, .F. ) ;
#302 = EDGE_CURVE ( 'NONE', #361, #336, #25, .T. ) ;
#303 = DIRECTION ( 'NONE',  ( 0.0000000000000000000, 0.0000000000000000000, 1.000000000000000000 ) ) ;
#304 = ADVANCED_FACE ( 'NONE', ( #345 ), #162, .T. ) ;
#305 = DIRECTION ( 'NONE',  ( -0.0000000000000000000, -0.0000000000000000000, 1.000000000000000000 ) ) ;
#306 = COLOUR_RGB ( '',0.7529411764705882200, 0.7529411764705882200, 0.7529411764705882200 ) ;
#307 = CYLINDRICAL_SURFACE ( 'NONE', #288, 55.00000000000000000 ) ;
#308 = ORIENTED_EDGE ( 'NONE', *, *, #266, .F. ) ;
#309 = CARTESIAN_POINT ( 'NONE',  ( -38.00000000000000000, 30.75000000000000000, -600.0000000000000000 ) ) ;
#310 = ADVANCED_FACE ( 'NONE', ( #237 ), #159, .T. ) ;
#311 = AXIS2_PLACEMENT_3D ( 'NONE', #64, #303, #103 ) ;
#312 = CARTESIAN_POINT ( 'NONE',  ( -72.50000000000000000, 18.58398183685471100, -600.0000000000000000 ) ) ;
#313 = EDGE_CURVE ( 'NONE', #71, #21, #254, .T. ) ;
#314 = APPLICATION_CONTEXT ( 'automotive_design' ) ;
#315 = ORIENTED_EDGE ( 'NONE', *, *, #338, .T. ) ;
#316 = CARTESIAN_POINT ( 'NONE',  ( -72.50000000000000000, 0.0000000000000000000, 0.0000000000000000000 ) ) ;
#317 = CARTESIAN_POINT ( 'NONE',  ( 38.00000000000000000, -24.25000000000000000, -600.0000000000000000 ) ) ;
#318 = LINE ( 'NONE', #34, #153 ) ;
#319 = PLANE ( 'NONE',  #160 ) ;
#320 = AXIS2_PLACEMENT_3D ( 'NONE', #317, #27, #82 ) ;
#321 = VERTEX_POINT ( 'NONE', #140 ) ;
#322 = EDGE_CURVE ( 'NONE', #164, #41, #233, .T. ) ;
#323 = CARTESIAN_POINT ( 'NONE',  ( 38.00000000000000000, 30.75000000000000000, -600.0000000000000000 ) ) ;
#324 = ORIENTED_EDGE ( 'NONE', *, *, #313, .F. ) ;
#325 = AXIS2_PLACEMENT_3D ( 'NONE', #265, #12, #37 ) ;
#326 = VECTOR ( 'NONE', #330, 1000.000000000000000 ) ;
#327 = ORIENTED_EDGE ( 'NONE', *, *, #69, .F. ) ;
#328 = DIRECTION ( 'NONE',  ( 1.000000000000000000, 0.0000000000000000000, 0.0000000000000000000 ) ) ;
#329 = PLANE ( 'NONE',  #311 ) ;
#330 = DIRECTION ( 'NONE',  ( -0.0000000000000000000, 0.0000000000000000000, -1.000000000000000000 ) ) ;
#331 = CYLINDRICAL_SURFACE ( 'NONE', #214, 55.00000000000000000 ) ;
#332 = DIRECTION ( 'NONE',  ( 0.0000000000000000000, -0.0000000000000000000, 1.000000000000000000 ) ) ;
#333 = ORIENTED_EDGE ( 'NONE', *, *, #150, .F. ) ;
#334 = CARTESIAN_POINT ( 'NONE',  ( 72.50000000000000000, 18.58398183685470100, 0.0000000000000000000 ) ) ;
#335 =( NAMED_UNIT ( * ) SI_UNIT ( $, .STERADIAN. ) SOLID_ANGLE_UNIT ( ) );
#336 = VERTEX_POINT ( 'NONE', #371 ) ;
#337 = DIRECTION ( 'NONE',  ( 1.000000000000000000, 0.0000000000000000000, 0.0000000000000000000 ) ) ;
#338 = EDGE_CURVE ( 'NONE', #32, #240, #144, .T. ) ;
#339 = FILL_AREA_STYLE ('',( #224 ) ) ;
#340 =( NAMED_UNIT ( * ) SI_UNIT ( $, .STERADIAN. ) SOLID_ANGLE_UNIT ( ) );
#341 = ORIENTED_EDGE ( 'NONE', *, *, #257, .T. ) ;
#342 = VERTEX_POINT ( 'NONE', #343 ) ;
#343 = CARTESIAN_POINT ( 'NONE',  ( -38.00000000000000000, -30.75000000000000000, -600.0000000000000000 ) ) ;
#344 = APPLICATION_CONTEXT ( 'automotive_design' ) ;
#345 = FACE_OUTER_BOUND ( 'NONE', #268, .T. ) ;
#346 = EDGE_LOOP ( 'NONE', ( #154, #296, #273, #76 ) ) ;
#347 = UNCERTAINTY_MEASURE_WITH_UNIT (LENGTH_MEASURE( 1.000000000000000100E-005 ), #252, 'distance_accuracy_value', 'NONE');
#348 = ORIENTED_EDGE ( 'NONE', *, *, #275, .F. ) ;
#349 = ORIENTED_EDGE ( 'NONE', *, *, #257, .F. ) ;
#350 = EDGE_CURVE ( 'NONE', #361, #32, #149, .T. ) ;
#351 = CARTESIAN_POINT ( 'NONE',  ( 72.50000000000000000, 0.0000000000000000000, 25.00000000000000000 ) ) ;
#352 = VECTOR ( 'NONE', #74, 1000.000000000000000 ) ;
#353 = VECTOR ( 'NONE', #95, 1000.000000000000000 ) ;
#354 = DIRECTION ( 'NONE',  ( 1.000000000000000000, 0.0000000000000000000, 0.0000000000000000000 ) ) ;
#355 = ORIENTED_EDGE ( 'NONE', *, *, #350, .T. ) ;
#356 = SURFACE_STYLE_USAGE ( .BOTH. , #39 ) ;
#357 = DIRECTION ( 'NONE',  ( 0.0000000000000000000, -1.000000000000000000, -0.0000000000000000000 ) ) ;
#358 = ADVANCED_FACE ( 'NONE', ( #227 ), #283, .T. ) ;
#359 = VECTOR ( 'NONE', #293, 1000.000000000000000 ) ;
#360 = EDGE_CURVE ( 'NONE', #228, #260, #372, .T. ) ;
#361 = VERTEX_POINT ( 'NONE', #135 ) ;
#362 = FILL_AREA_STYLE_COLOUR ( '', #295 ) ;
#363 = ADVANCED_BREP_SHAPE_REPRESENTATION ( '6530453_CNAJF00', ( #185, #299 ), #177 ) ;
#364 = CARTESIAN_POINT ( 'NONE',  ( -38.00000000000000000, 30.75000000000000000, 0.0000000000000000000 ) ) ;
#365 = ADVANCED_FACE ( 'NONE', ( #6 ), #319, .T. ) ;
#366 = VECTOR ( 'NONE', #332, 1000.000000000000000 ) ;
#367 = VECTOR ( 'NONE', #9, 1000.000000000000000 ) ;
#368 = MECHANICAL_DESIGN_GEOMETRIC_PRESENTATION_REPRESENTATION (  '', ( #67 ), #229 ) ;
#369 = CARTESIAN_POINT ( 'NONE',  ( 0.0000000000000000000, -30.75000000000000000, 0.0000000000000000000 ) ) ;
#370 = DIRECTION ( 'NONE',  ( 0.0000000000000000000, -0.0000000000000000000, 1.000000000000000000 ) ) ;
#371 = CARTESIAN_POINT ( 'NONE',  ( 72.50000000000000000, 18.58398183685471800, 25.00000000000000000 ) ) ;
#372 = LINE ( 'NONE', #193, #291 ) ;
ENDSEC;
END-ISO-10303-21;
