ISO-10303-21;
HEADER;
FILE_DESCRIPTION (( 'STEP AP214' ),
    '1' );
FILE_NAME ('6520601',
    '2019-02-01T12:48:39',
    ( '' ),
    ('JUGARD+KÜNSTNER GmbH'),
    'SwSTEP 2.0',
    'SolidWorks 2017',
    '' );
FILE_SCHEMA (( 'AUTOMOTIVE_DESIGN' ));
ENDSEC;

DATA;
#1 = DIRECTION ( 'NONE',  ( -0.0000000000000000000, 1.000000000000000000, 0.0000000000000000000 ) ) ;
#2 =( NAMED_UNIT ( * ) PLANE_ANGLE_UNIT ( ) SI_UNIT ( $, .RADIAN. ) );
#3 = ORIENTED_EDGE ( 'NONE', *, *, #187, .T. ) ;
#4 = SURFACE_SIDE_STYLE ('',( #65 ) ) ;
#5 = ORIENTED_EDGE ( 'NONE', *, *, #43, .T. ) ;
#6 = UNCERTAINTY_MEASURE_WITH_UNIT (LENGTH_MEASURE( 1.000000000000000100E-005 ), #186, 'distance_accuracy_value', 'NONE');
#7 = VERTEX_POINT ( 'NONE', #77 ) ;
#8 = CARTESIAN_POINT ( 'NONE',  ( -1098.000000000030000, -862.9999999999849900, 3.999999999994440400 ) ) ;
#9 = DIRECTION ( 'NONE',  ( 0.0000000000000000000, 0.0000000000000000000, 1.000000000000000000 ) ) ;
#10 = EDGE_CURVE ( 'NONE', #42, #7, #46, .T. ) ;
#11 = VECTOR ( 'NONE', #172, 1000.000000000000000 ) ;
#12 = DIRECTION ( 'NONE',  ( 0.0000000000000000000, 1.000000000000000000, -0.0000000000000000000 ) ) ;
#13 = CARTESIAN_POINT ( 'NONE',  ( 1401.999999999960000, 387.0000000000150100, 3.999999999994440400 ) ) ;
#14 = AXIS2_PLACEMENT_3D ( 'NONE', #162, #177, #163 ) ;
#15 = UNCERTAINTY_MEASURE_WITH_UNIT (LENGTH_MEASURE( 1.000000000000000100E-005 ), #29, 'distance_accuracy_value', 'NONE');
#16 = VECTOR ( 'NONE', #111, 1000.000000000000000 ) ;
#17 = ORIENTED_EDGE ( 'NONE', *, *, #91, .F. ) ;
#18 = EDGE_CURVE ( 'NONE', #94, #7, #25, .T. ) ;
#19 = APPLICATION_PROTOCOL_DEFINITION ( 'draft international standard', 'automotive_design', 1998, #101 ) ;
#20 = STYLED_ITEM ( 'NONE', ( #142 ), #50 ) ;
#21 = VECTOR ( 'NONE', #134, 1000.000000000000000 ) ;
#22 = ORIENTED_EDGE ( 'NONE', *, *, #82, .F. ) ;
#23 = PRESENTATION_LAYER_ASSIGNMENT (  '', '', ( #157 ) ) ;
#24 = CARTESIAN_POINT ( 'NONE',  ( -1098.000000000030000, -862.9999999999849900, 0.9999999999944381200 ) ) ;
#25 = LINE ( 'NONE', #197, #21 ) ;
#26 = ADVANCED_FACE ( 'NONE', ( #79 ), #44, .T. ) ;
#27 = ORIENTED_EDGE ( 'NONE', *, *, #63, .F. ) ;
#28 = DIRECTION ( 'NONE',  ( 0.0000000000000000000, 0.0000000000000000000, 1.000000000000000000 ) ) ;
#29 =( LENGTH_UNIT ( ) NAMED_UNIT ( * ) SI_UNIT ( .MILLI., .METRE. ) );
#30 = PLANE ( 'NONE',  #47 ) ;
#31 = EDGE_CURVE ( 'NONE', #42, #60, #189, .T. ) ;
#32 = DIRECTION ( 'NONE',  ( 1.000000000000000000, 0.0000000000000000000, -0.0000000000000000000 ) ) ;
#33 = CARTESIAN_POINT ( 'NONE',  ( 0.0000000000000000000, 0.0000000000000000000, 0.0000000000000000000 ) ) ;
#34 = EDGE_CURVE ( 'NONE', #60, #94, #158, .T. ) ;
#35 =( GEOMETRIC_REPRESENTATION_CONTEXT ( 3 ) GLOBAL_UNCERTAINTY_ASSIGNED_CONTEXT ( ( #15 ) ) GLOBAL_UNIT_ASSIGNED_CONTEXT ( ( #29, #150, #184 ) ) REPRESENTATION_CONTEXT ( 'NONE', 'WORKASPACE' ) );
#36 = MECHANICAL_DESIGN_GEOMETRIC_PRESENTATION_REPRESENTATION (  '', ( #20 ), #136 ) ;
#37 = ORIENTED_EDGE ( 'NONE', *, *, #187, .F. ) ;
#38 = PRODUCT_CONTEXT ( 'NONE', #100, 'mechanical' ) ;
#39 = VECTOR ( 'NONE', #1, 1000.000000000000000 ) ;
#40 = ORIENTED_EDGE ( 'NONE', *, *, #107, .F. ) ;
#41 = CARTESIAN_POINT ( 'NONE',  ( -1098.000000000030000, 387.0000000000150100, 3.999999999994440400 ) ) ;
#42 = VERTEX_POINT ( 'NONE', #195 ) ;
#43 = EDGE_CURVE ( 'NONE', #196, #56, #174, .T. ) ;
#44 = PLANE ( 'NONE',  #14 ) ;
#45 = FACE_OUTER_BOUND ( 'NONE', #154, .T. ) ;
#46 = LINE ( 'NONE', #24, #16 ) ;
#47 = AXIS2_PLACEMENT_3D ( 'NONE', #138, #9, #32 ) ;
#48 = DIRECTION ( 'NONE',  ( 0.0000000000000000000, 1.000000000000000000, 0.0000000000000000000 ) ) ;
#49 = DIRECTION ( 'NONE',  ( 0.0000000000000000000, -0.0000000000000000000, -1.000000000000000000 ) ) ;
#50 = ADVANCED_BREP_SHAPE_REPRESENTATION ( '6520601_CNAJF00', ( #113, #72 ), #76 ) ;
#51 = PRESENTATION_STYLE_ASSIGNMENT (( #99 ) ) ;
#52 = EDGE_LOOP ( 'NONE', ( #55, #171, #89, #71 ) ) ;
#53 = APPLICATION_PROTOCOL_DEFINITION ( 'draft international standard', 'automotive_design', 1998, #100 ) ;
#54 = SURFACE_STYLE_FILL_AREA ( #152 ) ;
#55 = ORIENTED_EDGE ( 'NONE', *, *, #91, .T. ) ;
#56 = VERTEX_POINT ( 'NONE', #179 ) ;
#57 = CARTESIAN_POINT ( 'NONE',  ( 1401.999999999960000, 387.0000000000150100, 3.999999999994440400 ) ) ;
#58 = ADVANCED_FACE ( 'NONE', ( #131 ), #145, .F. ) ;
#59 = DIRECTION ( 'NONE',  ( 0.0000000000000000000, -1.000000000000000000, 0.0000000000000000000 ) ) ;
#60 = VERTEX_POINT ( 'NONE', #41 ) ;
#61 = DIRECTION ( 'NONE',  ( 1.000000000000000000, 0.0000000000000000000, 0.0000000000000000000 ) ) ;
#62 = DIRECTION ( 'NONE',  ( 0.0000000000000000000, -0.0000000000000000000, 1.000000000000000000 ) ) ;
#63 = EDGE_CURVE ( 'NONE', #132, #56, #106, .T. ) ;
#64 = PLANE ( 'NONE',  #66 ) ;
#65 = SURFACE_STYLE_FILL_AREA ( #170 ) ;
#66 = AXIS2_PLACEMENT_3D ( 'NONE', #95, #61, #166 ) ;
#67 = AXIS2_PLACEMENT_3D ( 'NONE', #151, #48, #62 ) ;
#68 = VECTOR ( 'NONE', #73, 1000.000000000000000 ) ;
#69 = SURFACE_STYLE_USAGE ( .BOTH. , #4 ) ;
#70 = LINE ( 'NONE', #201, #87 ) ;
#71 = ORIENTED_EDGE ( 'NONE', *, *, #161, .T. ) ;
#72 = AXIS2_PLACEMENT_3D ( 'NONE', #33, #188, #103 ) ;
#73 = DIRECTION ( 'NONE',  ( -0.0000000000000000000, 0.0000000000000000000, 1.000000000000000000 ) ) ;
#74 = EDGE_CURVE ( 'NONE', #94, #132, #139, .T. ) ;
#75 = SHAPE_DEFINITION_REPRESENTATION ( #108, #50 ) ;
#76 =( GEOMETRIC_REPRESENTATION_CONTEXT ( 3 ) GLOBAL_UNCERTAINTY_ASSIGNED_CONTEXT ( ( #86 ) ) GLOBAL_UNIT_ASSIGNED_CONTEXT ( ( #80, #2, #191 ) ) REPRESENTATION_CONTEXT ( 'NONE', 'WORKASPACE' ) );
#77 = CARTESIAN_POINT ( 'NONE',  ( -1098.000000000030000, -862.9999999999849900, 0.9999999999944381200 ) ) ;
#78 = CARTESIAN_POINT ( 'NONE',  ( 1401.999999999960200, -862.9999999999849900, 0.9999999999944381200 ) ) ;
#79 = FACE_OUTER_BOUND ( 'NONE', #175, .T. ) ;
#80 =( LENGTH_UNIT ( ) NAMED_UNIT ( * ) SI_UNIT ( .MILLI., .METRE. ) );
#81 = EDGE_LOOP ( 'NONE', ( #121, #144, #141, #190 ) ) ;
#82 = EDGE_CURVE ( 'NONE', #137, #196, #135, .T. ) ;
#83 = FACE_OUTER_BOUND ( 'NONE', #81, .T. ) ;
#84 = ORIENTED_EDGE ( 'NONE', *, *, #74, .T. ) ;
#85 = PRODUCT_DEFINITION_FORMATION_WITH_SPECIFIED_SOURCE ( 'ANY', '', #173, .NOT_KNOWN. ) ;
#86 = UNCERTAINTY_MEASURE_WITH_UNIT (LENGTH_MEASURE( 1.000000000000000100E-005 ), #80, 'distance_accuracy_value', 'NONE');
#87 = VECTOR ( 'NONE', #178, 1000.000000000000000 ) ;
#88 = CARTESIAN_POINT ( 'NONE',  ( 1401.999999999960000, -862.9999999999849900, 3.999999999994440400 ) ) ;
#89 = ORIENTED_EDGE ( 'NONE', *, *, #18, .T. ) ;
#90 = PRODUCT_DEFINITION ( 'UNKNOWN', '', #85, #176 ) ;
#91 = EDGE_CURVE ( 'NONE', #137, #132, #180, .T. ) ;
#92 = VECTOR ( 'NONE', #12, 1000.000000000000000 ) ;
#93 = ADVANCED_FACE ( 'NONE', ( #156 ), #30, .F. ) ;
#94 = VERTEX_POINT ( 'NONE', #8 ) ;
#95 = CARTESIAN_POINT ( 'NONE',  ( -1098.000000000030000, 387.0000000000150100, 3.999999999994440400 ) ) ;
#96 = CARTESIAN_POINT ( 'NONE',  ( 1401.999999999960200, 387.0000000000150100, 0.9999999999944381200 ) ) ;
#97 = LINE ( 'NONE', #119, #11 ) ;
#98 = ORIENTED_EDGE ( 'NONE', *, *, #34, .T. ) ;
#99 = SURFACE_STYLE_USAGE ( .BOTH. , #183 ) ;
#100 = APPLICATION_CONTEXT ( 'automotive_design' ) ;
#101 = APPLICATION_CONTEXT ( 'automotive_design' ) ;
#102 = ORIENTED_EDGE ( 'NONE', *, *, #161, .F. ) ;
#103 = DIRECTION ( 'NONE',  ( 1.000000000000000000, 0.0000000000000000000, 0.0000000000000000000 ) ) ;
#104 = ORIENTED_EDGE ( 'NONE', *, *, #31, .T. ) ;
#105 =( NAMED_UNIT ( * ) SI_UNIT ( $, .STERADIAN. ) SOLID_ANGLE_UNIT ( ) );
#106 = LINE ( 'NONE', #88, #92 ) ;
#107 = EDGE_CURVE ( 'NONE', #56, #60, #185, .T. ) ;
#108 = PRODUCT_DEFINITION_SHAPE ( 'NONE', 'NONE',  #90 ) ;
#109 = VECTOR ( 'NONE', #198, 1000.000000000000000 ) ;
#110 = AXIS2_PLACEMENT_3D ( 'NONE', #13, #59, #49 ) ;
#111 = DIRECTION ( 'NONE',  ( 0.0000000000000000000, -1.000000000000000000, -0.0000000000000000000 ) ) ;
#112 = COLOUR_RGB ( '',0.5686274509803921400, 0.6078431372549019100, 0.6470588235294118000 ) ;
#113 = MANIFOLD_SOLID_BREP ( 'Importiert1', #114 ) ;
#114 = CLOSED_SHELL ( 'NONE', ( #93, #181, #126, #58, #116, #26 ) ) ;
#115 = CARTESIAN_POINT ( 'NONE',  ( 1401.999999999960200, -862.9999999999849900, 0.9999999999944381200 ) ) ;
#116 = ADVANCED_FACE ( 'NONE', ( #192 ), #153, .F. ) ;
#117 = DIRECTION ( 'NONE',  ( -1.000000000000000000, -0.0000000000000000000, -0.0000000000000000000 ) ) ;
#118 = VECTOR ( 'NONE', #167, 1000.000000000000000 ) ;
#119 = CARTESIAN_POINT ( 'NONE',  ( -1098.000000000030000, 387.0000000000150100, 0.9999999999944381200 ) ) ;
#120 = VECTOR ( 'NONE', #165, 1000.000000000000000 ) ;
#121 = ORIENTED_EDGE ( 'NONE', *, *, #18, .F. ) ;
#122 = ORIENTED_EDGE ( 'NONE', *, *, #107, .T. ) ;
#123 = EDGE_LOOP ( 'NONE', ( #37, #22, #102, #149 ) ) ;
#124 = CARTESIAN_POINT ( 'NONE',  ( -1098.000000000030000, 387.0000000000150100, 3.999999999994440400 ) ) ;
#125 = FILL_AREA_STYLE_COLOUR ( '', #112 ) ;
#126 = ADVANCED_FACE ( 'NONE', ( #45 ), #168, .F. ) ;
#127 = DIRECTION ( 'NONE',  ( -1.000000000000000000, 0.0000000000000000000, 0.0000000000000000000 ) ) ;
#128 = CARTESIAN_POINT ( 'NONE',  ( 1401.999999999960000, 387.0000000000150100, 3.999999999994440400 ) ) ;
#129 = DIRECTION ( 'NONE',  ( 0.0000000000000000000, 0.0000000000000000000, 1.000000000000000000 ) ) ;
#130 =( NAMED_UNIT ( * ) PLANE_ANGLE_UNIT ( ) SI_UNIT ( $, .RADIAN. ) );
#131 = FACE_OUTER_BOUND ( 'NONE', #164, .T. ) ;
#132 = VERTEX_POINT ( 'NONE', #202 ) ;
#133 = ORIENTED_EDGE ( 'NONE', *, *, #43, .F. ) ;
#134 = DIRECTION ( 'NONE',  ( 0.0000000000000000000, 0.0000000000000000000, -1.000000000000000000 ) ) ;
#135 = LINE ( 'NONE', #115, #39 ) ;
#136 =( GEOMETRIC_REPRESENTATION_CONTEXT ( 3 ) GLOBAL_UNCERTAINTY_ASSIGNED_CONTEXT ( ( #6 ) ) GLOBAL_UNIT_ASSIGNED_CONTEXT ( ( #186, #130, #105 ) ) REPRESENTATION_CONTEXT ( 'NONE', 'WORKASPACE' ) );
#137 = VERTEX_POINT ( 'NONE', #78 ) ;
#138 = CARTESIAN_POINT ( 'NONE',  ( -1098.000000000030000, -862.9999999999849900, 0.9999999999944381200 ) ) ;
#139 = LINE ( 'NONE', #155, #118 ) ;
#140 = VECTOR ( 'NONE', #129, 1000.000000000000000 ) ;
#141 = ORIENTED_EDGE ( 'NONE', *, *, #31, .F. ) ;
#142 = PRESENTATION_STYLE_ASSIGNMENT (( #69 ) ) ;
#143 = PRESENTATION_LAYER_ASSIGNMENT (  '', '', ( #20 ) ) ;
#144 = ORIENTED_EDGE ( 'NONE', *, *, #34, .F. ) ;
#145 = PLANE ( 'NONE',  #193 ) ;
#146 = COLOUR_RGB ( '',0.7529411764705882200, 0.7529411764705882200, 0.7529411764705882200 ) ;
#147 = CARTESIAN_POINT ( 'NONE',  ( -1098.000000000030000, 387.0000000000150100, 3.999999999994440400 ) ) ;
#148 = VECTOR ( 'NONE', #117, 1000.000000000000000 ) ;
#149 = ORIENTED_EDGE ( 'NONE', *, *, #10, .F. ) ;
#150 =( NAMED_UNIT ( * ) PLANE_ANGLE_UNIT ( ) SI_UNIT ( $, .RADIAN. ) );
#151 = CARTESIAN_POINT ( 'NONE',  ( -1098.000000000030000, -862.9999999999849900, 3.999999999994440400 ) ) ;
#152 = FILL_AREA_STYLE ('',( #125 ) ) ;
#153 = PLANE ( 'NONE',  #67 ) ;
#154 = EDGE_LOOP ( 'NONE', ( #104, #40, #133, #3 ) ) ;
#155 = CARTESIAN_POINT ( 'NONE',  ( -1098.000000000030000, -862.9999999999849900, 3.999999999994440400 ) ) ;
#156 = FACE_OUTER_BOUND ( 'NONE', #123, .T. ) ;
#157 = STYLED_ITEM ( 'NONE', ( #51 ), #113 ) ;
#158 = LINE ( 'NONE', #147, #120 ) ;
#159 = ORIENTED_EDGE ( 'NONE', *, *, #82, .T. ) ;
#160 = CARTESIAN_POINT ( 'NONE',  ( 1401.999999999960000, -862.9999999999849900, 3.999999999994440400 ) ) ;
#161 = EDGE_CURVE ( 'NONE', #7, #137, #70, .T. ) ;
#162 = CARTESIAN_POINT ( 'NONE',  ( -1098.000000000030000, -862.9999999999849900, 3.999999999994440400 ) ) ;
#163 = DIRECTION ( 'NONE',  ( 1.000000000000000000, 0.0000000000000000000, -0.0000000000000000000 ) ) ;
#164 = EDGE_LOOP ( 'NONE', ( #5, #27, #17, #159 ) ) ;
#165 = DIRECTION ( 'NONE',  ( 0.0000000000000000000, -1.000000000000000000, -0.0000000000000000000 ) ) ;
#166 = DIRECTION ( 'NONE',  ( 0.0000000000000000000, 0.0000000000000000000, -1.000000000000000000 ) ) ;
#167 = DIRECTION ( 'NONE',  ( 1.000000000000000000, 0.0000000000000000000, -0.0000000000000000000 ) ) ;
#168 = PLANE ( 'NONE',  #110 ) ;
#169 = PRODUCT_RELATED_PRODUCT_CATEGORY ( 'part', '', ( #173 ) ) ;
#170 = FILL_AREA_STYLE ('',( #182 ) ) ;
#171 = ORIENTED_EDGE ( 'NONE', *, *, #74, .F. ) ;
#172 = DIRECTION ( 'NONE',  ( -1.000000000000000000, -0.0000000000000000000, 0.0000000000000000000 ) ) ;
#173 = PRODUCT ( '6520601_CNAJF00', '6520601_CNAJF00', '', ( #38 ) ) ;
#174 = LINE ( 'NONE', #57, #68 ) ;
#175 = EDGE_LOOP ( 'NONE', ( #199, #122, #98, #84 ) ) ;
#176 = PRODUCT_DEFINITION_CONTEXT ( 'detailed design', #101, 'design' ) ;
#177 = DIRECTION ( 'NONE',  ( 0.0000000000000000000, 0.0000000000000000000, 1.000000000000000000 ) ) ;
#178 = DIRECTION ( 'NONE',  ( 1.000000000000000000, 0.0000000000000000000, -0.0000000000000000000 ) ) ;
#179 = CARTESIAN_POINT ( 'NONE',  ( 1401.999999999960200, 387.0000000000150100, 3.999999999994440400 ) ) ;
#180 = LINE ( 'NONE', #200, #140 ) ;
#181 = ADVANCED_FACE ( 'NONE', ( #83 ), #64, .F. ) ;
#182 = FILL_AREA_STYLE_COLOUR ( '', #146 ) ;
#183 = SURFACE_SIDE_STYLE ('',( #54 ) ) ;
#184 =( NAMED_UNIT ( * ) SI_UNIT ( $, .STERADIAN. ) SOLID_ANGLE_UNIT ( ) );
#185 = LINE ( 'NONE', #128, #148 ) ;
#186 =( LENGTH_UNIT ( ) NAMED_UNIT ( * ) SI_UNIT ( .MILLI., .METRE. ) );
#187 = EDGE_CURVE ( 'NONE', #196, #42, #97, .T. ) ;
#188 = DIRECTION ( 'NONE',  ( 0.0000000000000000000, 0.0000000000000000000, 1.000000000000000000 ) ) ;
#189 = LINE ( 'NONE', #124, #109 ) ;
#190 = ORIENTED_EDGE ( 'NONE', *, *, #10, .T. ) ;
#191 =( NAMED_UNIT ( * ) SI_UNIT ( $, .STERADIAN. ) SOLID_ANGLE_UNIT ( ) );
#192 = FACE_OUTER_BOUND ( 'NONE', #52, .T. ) ;
#193 = AXIS2_PLACEMENT_3D ( 'NONE', #160, #127, #28 ) ;
#194 = MECHANICAL_DESIGN_GEOMETRIC_PRESENTATION_REPRESENTATION (  '', ( #157 ), #35 ) ;
#195 = CARTESIAN_POINT ( 'NONE',  ( -1098.000000000030000, 387.0000000000150100, 0.9999999999944381200 ) ) ;
#196 = VERTEX_POINT ( 'NONE', #96 ) ;
#197 = CARTESIAN_POINT ( 'NONE',  ( -1098.000000000030000, -862.9999999999849900, 3.999999999994440400 ) ) ;
#198 = DIRECTION ( 'NONE',  ( -0.0000000000000000000, -0.0000000000000000000, 1.000000000000000000 ) ) ;
#199 = ORIENTED_EDGE ( 'NONE', *, *, #63, .T. ) ;
#200 = CARTESIAN_POINT ( 'NONE',  ( 1401.999999999960000, -862.9999999999849900, 3.999999999994440400 ) ) ;
#201 = CARTESIAN_POINT ( 'NONE',  ( -1098.000000000030000, -862.9999999999849900, 0.9999999999944381200 ) ) ;
#202 = CARTESIAN_POINT ( 'NONE',  ( 1401.999999999960200, -862.9999999999849900, 3.999999999994440400 ) ) ;
ENDSEC;
END-ISO-10303-21;
