ISO-10303-21;
HEADER;
FILE_DESCRIPTION (( 'STEP AP214' ),
    '1' );
FILE_NAME ('6520280',
    '2019-02-01T12:48:45',
    ( '' ),
    ('JUGARD+KÜNSTNER GmbH'),
    'SwSTEP 2.0',
    'SolidWorks 2017',
    '' );
FILE_SCHEMA (( 'AUTOMOTIVE_DESIGN' ));
ENDSEC;

DATA;
#1 = CARTESIAN_POINT ( 'NONE',  ( -500.0000000000000000, 1000.000000000000000, 5.000000000000000000 ) ) ;
#2 = AXIS2_PLACEMENT_3D ( 'NONE', #204, #40, #167 ) ;
#3 = UNCERTAINTY_MEASURE_WITH_UNIT (LENGTH_MEASURE( 1.000000000000000100E-005 ), #9, 'distance_accuracy_value', 'NONE');
#4 = EDGE_CURVE ( 'NONE', #141, #63, #157, .T. ) ;
#5 = VERTEX_POINT ( 'NONE', #1 ) ;
#6 = STYLED_ITEM ( 'NONE', ( #152 ), #203 ) ;
#7 = SURFACE_STYLE_USAGE ( .BOTH. , #47 ) ;
#8 = STYLED_ITEM ( 'NONE', ( #129 ), #34 ) ;
#9 =( LENGTH_UNIT ( ) NAMED_UNIT ( * ) SI_UNIT ( .MILLI., .METRE. ) );
#10 = SURFACE_STYLE_FILL_AREA ( #205 ) ;
#11 =( NAMED_UNIT ( * ) SI_UNIT ( $, .STERADIAN. ) SOLID_ANGLE_UNIT ( ) );
#12 = MECHANICAL_DESIGN_GEOMETRIC_PRESENTATION_REPRESENTATION (  '', ( #6 ), #15 ) ;
#13 = ORIENTED_EDGE ( 'NONE', *, *, #214, .T. ) ;
#14 = SURFACE_SIDE_STYLE ('',( #196 ) ) ;
#15 =( GEOMETRIC_REPRESENTATION_CONTEXT ( 3 ) GLOBAL_UNCERTAINTY_ASSIGNED_CONTEXT ( ( #3 ) ) GLOBAL_UNIT_ASSIGNED_CONTEXT ( ( #9, #134, #11 ) ) REPRESENTATION_CONTEXT ( 'NONE', 'WORKASPACE' ) );
#16 = VERTEX_POINT ( 'NONE', #73 ) ;
#17 =( NAMED_UNIT ( * ) PLANE_ANGLE_UNIT ( ) SI_UNIT ( $, .RADIAN. ) );
#18 = PRODUCT_DEFINITION ( 'UNKNOWN', '', #57, #148 ) ;
#19 =( NAMED_UNIT ( * ) SI_UNIT ( $, .STERADIAN. ) SOLID_ANGLE_UNIT ( ) );
#20 = UNCERTAINTY_MEASURE_WITH_UNIT (LENGTH_MEASURE( 1.000000000000000100E-005 ), #217, 'distance_accuracy_value', 'NONE');
#21 = LINE ( 'NONE', #174, #151 ) ;
#22 = DIRECTION ( 'NONE',  ( -0.0000000000000000000, -0.0000000000000000000, 1.000000000000000000 ) ) ;
#23 = LINE ( 'NONE', #180, #140 ) ;
#24 = VECTOR ( 'NONE', #154, 1000.000000000000000 ) ;
#25 = VERTEX_POINT ( 'NONE', #192 ) ;
#26 = PLANE ( 'NONE',  #147 ) ;
#27 = DIRECTION ( 'NONE',  ( 0.0000000000000000000, 1.000000000000000000, -0.0000000000000000000 ) ) ;
#28 = VECTOR ( 'NONE', #58, 1000.000000000000000 ) ;
#29 = MECHANICAL_DESIGN_GEOMETRIC_PRESENTATION_REPRESENTATION (  '', ( #98 ), #137 ) ;
#30 = CARTESIAN_POINT ( 'NONE',  ( 500.0000000000000000, 1000.000000000000000, 0.0000000000000000000 ) ) ;
#31 = EDGE_CURVE ( 'NONE', #63, #25, #77, .T. ) ;
#32 = FACE_OUTER_BOUND ( 'NONE', #53, .T. ) ;
#33 = ORIENTED_EDGE ( 'NONE', *, *, #186, .T. ) ;
#34 = MANIFOLD_SOLID_BREP ( 'Importiert1', #160 ) ;
#35 = CARTESIAN_POINT ( 'NONE',  ( -500.0000000000000000, -1000.000000000000000, 5.000000000000000000 ) ) ;
#36 = ORIENTED_EDGE ( 'NONE', *, *, #175, .T. ) ;
#37 = APPLICATION_CONTEXT ( 'automotive_design' ) ;
#38 = COLOUR_RGB ( '',0.5686274509803921400, 0.6078431372549019100, 0.6470588235294118000 ) ;
#39 = CARTESIAN_POINT ( 'NONE',  ( -500.0000000000000000, 1000.000000000000000, 0.0000000000000000000 ) ) ;
#40 = DIRECTION ( 'NONE',  ( 0.0000000000000000000, -1.000000000000000000, 0.0000000000000000000 ) ) ;
#41 = FILL_AREA_STYLE_COLOUR ( '', #118 ) ;
#42 = VECTOR ( 'NONE', #96, 1000.000000000000000 ) ;
#43 = VERTEX_POINT ( 'NONE', #55 ) ;
#44 = AXIS2_PLACEMENT_3D ( 'NONE', #66, #115, #70 ) ;
#45 = PRODUCT_DEFINITION_SHAPE ( 'NONE', 'NONE',  #18 ) ;
#46 = ORIENTED_EDGE ( 'NONE', *, *, #206, .T. ) ;
#47 = SURFACE_SIDE_STYLE ('',( #145 ) ) ;
#48 = FILL_AREA_STYLE_COLOUR ( '', #193 ) ;
#49 = EDGE_CURVE ( 'NONE', #164, #114, #153, .T. ) ;
#50 = CARTESIAN_POINT ( 'NONE',  ( 500.0000000000000000, -1000.000000000000000, 5.000000000000000000 ) ) ;
#51 = ORIENTED_EDGE ( 'NONE', *, *, #144, .T. ) ;
#52 = ADVANCED_FACE ( 'NONE', ( #171 ), #195, .T. ) ;
#53 = EDGE_LOOP ( 'NONE', ( #97, #200, #131, #162 ) ) ;
#54 = DIRECTION ( 'NONE',  ( 1.000000000000000000, 0.0000000000000000000, 0.0000000000000000000 ) ) ;
#55 = CARTESIAN_POINT ( 'NONE',  ( -500.0000000000000000, -1000.000000000000000, 0.0000000000000000000 ) ) ;
#56 = ADVANCED_FACE ( 'NONE', ( #125 ), #26, .F. ) ;
#57 = PRODUCT_DEFINITION_FORMATION_WITH_SPECIFIED_SOURCE ( 'ANY', '', #93, .NOT_KNOWN. ) ;
#58 = DIRECTION ( 'NONE',  ( -1.000000000000000000, -0.0000000000000000000, 0.0000000000000000000 ) ) ;
#59 =( GEOMETRIC_REPRESENTATION_CONTEXT ( 3 ) GLOBAL_UNCERTAINTY_ASSIGNED_CONTEXT ( ( #20 ) ) GLOBAL_UNIT_ASSIGNED_CONTEXT ( ( #217, #17, #199 ) ) REPRESENTATION_CONTEXT ( 'NONE', 'WORKASPACE' ) );
#60 = CARTESIAN_POINT ( 'NONE',  ( 500.0000000000000000, -1000.000000000000000, 0.0000000000000000000 ) ) ;
#61 = PRODUCT_CONTEXT ( 'NONE', #155, 'mechanical' ) ;
#62 = ORIENTED_EDGE ( 'NONE', *, *, #124, .F. ) ;
#63 = VERTEX_POINT ( 'NONE', #30 ) ;
#64 = ORIENTED_EDGE ( 'NONE', *, *, #175, .F. ) ;
#65 = DIRECTION ( 'NONE',  ( -1.000000000000000000, 0.0000000000000000000, 0.0000000000000000000 ) ) ;
#66 = CARTESIAN_POINT ( 'NONE',  ( -500.0000000000000000, -1000.000000000000000, 5.000000000000000000 ) ) ;
#67 = AXIS2_PLACEMENT_3D ( 'NONE', #78, #65, #181 ) ;
#68 = FACE_OUTER_BOUND ( 'NONE', #126, .T. ) ;
#69 = ORIENTED_EDGE ( 'NONE', *, *, #214, .F. ) ;
#70 = DIRECTION ( 'NONE',  ( 1.000000000000000000, 0.0000000000000000000, -0.0000000000000000000 ) ) ;
#71 = DIRECTION ( 'NONE',  ( 1.000000000000000000, 0.0000000000000000000, -0.0000000000000000000 ) ) ;
#72 =( GEOMETRIC_REPRESENTATION_CONTEXT ( 3 ) GLOBAL_UNCERTAINTY_ASSIGNED_CONTEXT ( ( #82 ) ) GLOBAL_UNIT_ASSIGNED_CONTEXT ( ( #107, #123, #19 ) ) REPRESENTATION_CONTEXT ( 'NONE', 'WORKASPACE' ) );
#73 = CARTESIAN_POINT ( 'NONE',  ( 500.0000000000000000, 1000.000000000000000, 5.000000000000000000 ) ) ;
#74 = LINE ( 'NONE', #142, #105 ) ;
#75 = ORIENTED_EDGE ( 'NONE', *, *, #49, .T. ) ;
#76 = ORIENTED_EDGE ( 'NONE', *, *, #144, .F. ) ;
#77 = LINE ( 'NONE', #39, #28 ) ;
#78 = CARTESIAN_POINT ( 'NONE',  ( 500.0000000000000000, -1000.000000000000000, 5.000000000000000000 ) ) ;
#79 = APPLICATION_PROTOCOL_DEFINITION ( 'draft international standard', 'automotive_design', 1998, #155 ) ;
#80 = CARTESIAN_POINT ( 'NONE',  ( -500.0000000000000000, 1000.000000000000000, 5.000000000000000000 ) ) ;
#81 = ORIENTED_EDGE ( 'NONE', *, *, #49, .F. ) ;
#82 = UNCERTAINTY_MEASURE_WITH_UNIT (LENGTH_MEASURE( 1.000000000000000100E-005 ), #107, 'distance_accuracy_value', 'NONE');
#83 = CARTESIAN_POINT ( 'NONE',  ( -500.0000000000000000, -1000.000000000000000, 5.000000000000000000 ) ) ;
#84 = CARTESIAN_POINT ( 'NONE',  ( 500.0000000000000000, 1000.000000000000000, 5.000000000000000000 ) ) ;
#85 = FACE_OUTER_BOUND ( 'NONE', #127, .T. ) ;
#86 = EDGE_LOOP ( 'NONE', ( #51, #81, #46, #13 ) ) ;
#87 = VECTOR ( 'NONE', #108, 1000.000000000000000 ) ;
#88 = DIRECTION ( 'NONE',  ( 1.000000000000000000, 0.0000000000000000000, -0.0000000000000000000 ) ) ;
#89 = LINE ( 'NONE', #84, #169 ) ;
#90 = LINE ( 'NONE', #202, #179 ) ;
#91 =( NAMED_UNIT ( * ) PLANE_ANGLE_UNIT ( ) SI_UNIT ( $, .RADIAN. ) );
#92 = CARTESIAN_POINT ( 'NONE',  ( 500.0000000000000000, -1000.000000000000000, 0.0000000000000000000 ) ) ;
#93 = PRODUCT ( '6520280_CNAJF00', '6520280_CNAJF00', '', ( #61 ) ) ;
#94 = DIRECTION ( 'NONE',  ( 0.0000000000000000000, 0.0000000000000000000, 1.000000000000000000 ) ) ;
#95 = DIRECTION ( 'NONE',  ( 0.0000000000000000000, -1.000000000000000000, -0.0000000000000000000 ) ) ;
#96 = DIRECTION ( 'NONE',  ( 1.000000000000000000, 0.0000000000000000000, -0.0000000000000000000 ) ) ;
#97 = ORIENTED_EDGE ( 'NONE', *, *, #99, .T. ) ;
#98 = STYLED_ITEM ( 'NONE', ( #143 ), #170 ) ;
#99 = EDGE_CURVE ( 'NONE', #25, #5, #182, .T. ) ;
#100 = FACE_OUTER_BOUND ( 'NONE', #173, .T. ) ;
#101 = DIRECTION ( 'NONE',  ( 0.0000000000000000000, 0.0000000000000000000, -1.000000000000000000 ) ) ;
#102 = FILL_AREA_STYLE ('',( #48 ) ) ;
#103 = AXIS2_PLACEMENT_3D ( 'NONE', #213, #109, #54 ) ;
#104 = CARTESIAN_POINT ( 'NONE',  ( -500.0000000000000000, -1000.000000000000000, 0.0000000000000000000 ) ) ;
#105 = VECTOR ( 'NONE', #113, 1000.000000000000000 ) ;
#106 = ORIENTED_EDGE ( 'NONE', *, *, #189, .T. ) ;
#107 =( LENGTH_UNIT ( ) NAMED_UNIT ( * ) SI_UNIT ( .MILLI., .METRE. ) );
#108 = DIRECTION ( 'NONE',  ( 0.0000000000000000000, 0.0000000000000000000, -1.000000000000000000 ) ) ;
#109 = DIRECTION ( 'NONE',  ( 0.0000000000000000000, 0.0000000000000000000, 1.000000000000000000 ) ) ;
#110 = SURFACE_STYLE_USAGE ( .BOTH. , #14 ) ;
#111 = MECHANICAL_DESIGN_GEOMETRIC_PRESENTATION_REPRESENTATION (  '', ( #8 ), #59 ) ;
#112 = ORIENTED_EDGE ( 'NONE', *, *, #4, .F. ) ;
#113 = DIRECTION ( 'NONE',  ( 0.0000000000000000000, -1.000000000000000000, -0.0000000000000000000 ) ) ;
#114 = VERTEX_POINT ( 'NONE', #133 ) ;
#115 = DIRECTION ( 'NONE',  ( 0.0000000000000000000, 0.0000000000000000000, 1.000000000000000000 ) ) ;
#116 = DIRECTION ( 'NONE',  ( -1.000000000000000000, -0.0000000000000000000, -0.0000000000000000000 ) ) ;
#117 = SURFACE_SIDE_STYLE ('',( #10 ) ) ;
#118 = COLOUR_RGB ( '',0.7529411764705882200, 0.7529411764705882200, 0.7529411764705882200 ) ;
#119 = ORIENTED_EDGE ( 'NONE', *, *, #31, .F. ) ;
#120 = PLANE ( 'NONE',  #2 ) ;
#121 = ORIENTED_EDGE ( 'NONE', *, *, #99, .F. ) ;
#122 = LINE ( 'NONE', #50, #184 ) ;
#123 =( NAMED_UNIT ( * ) PLANE_ANGLE_UNIT ( ) SI_UNIT ( $, .RADIAN. ) );
#124 = EDGE_CURVE ( 'NONE', #114, #16, #23, .T. ) ;
#125 = FACE_OUTER_BOUND ( 'NONE', #86, .T. ) ;
#126 = EDGE_LOOP ( 'NONE', ( #119, #112, #69, #177 ) ) ;
#127 = EDGE_LOOP ( 'NONE', ( #165, #64, #121, #33 ) ) ;
#128 = ADVANCED_FACE ( 'NONE', ( #100 ), #146, .F. ) ;
#129 = PRESENTATION_STYLE_ASSIGNMENT (( #110 ) ) ;
#130 = APPLICATION_PROTOCOL_DEFINITION ( 'draft international standard', 'automotive_design', 1998, #37 ) ;
#131 = ORIENTED_EDGE ( 'NONE', *, *, #209, .F. ) ;
#132 = AXIS2_PLACEMENT_3D ( 'NONE', #208, #161, #101 ) ;
#133 = CARTESIAN_POINT ( 'NONE',  ( 500.0000000000000000, -1000.000000000000000, 5.000000000000000000 ) ) ;
#134 =( NAMED_UNIT ( * ) PLANE_ANGLE_UNIT ( ) SI_UNIT ( $, .RADIAN. ) );
#135 = DIRECTION ( 'NONE',  ( 0.0000000000000000000, 0.0000000000000000000, 1.000000000000000000 ) ) ;
#136 = PRESENTATION_LAYER_ASSIGNMENT (  '', '', ( #8 ) ) ;
#137 =( GEOMETRIC_REPRESENTATION_CONTEXT ( 3 ) GLOBAL_UNCERTAINTY_ASSIGNED_CONTEXT ( ( #212 ) ) GLOBAL_UNIT_ASSIGNED_CONTEXT ( ( #166, #91, #163 ) ) REPRESENTATION_CONTEXT ( 'NONE', 'WORKASPACE' ) );
#138 = ORIENTED_EDGE ( 'NONE', *, *, #209, .T. ) ;
#139 = FILL_AREA_STYLE_COLOUR ( '', #38 ) ;
#140 = VECTOR ( 'NONE', #27, 1000.000000000000000 ) ;
#141 = VERTEX_POINT ( 'NONE', #60 ) ;
#142 = CARTESIAN_POINT ( 'NONE',  ( -500.0000000000000000, 1000.000000000000000, 5.000000000000000000 ) ) ;
#143 = PRESENTATION_STYLE_ASSIGNMENT (( #176 ) ) ;
#144 = EDGE_CURVE ( 'NONE', #141, #114, #122, .T. ) ;
#145 = SURFACE_STYLE_FILL_AREA ( #102 ) ;
#146 = PLANE ( 'NONE',  #67 ) ;
#147 = AXIS2_PLACEMENT_3D ( 'NONE', #83, #201, #149 ) ;
#148 = PRODUCT_DEFINITION_CONTEXT ( 'detailed design', #37, 'design' ) ;
#149 = DIRECTION ( 'NONE',  ( 0.0000000000000000000, -0.0000000000000000000, 1.000000000000000000 ) ) ;
#150 = DIRECTION ( 'NONE',  ( -0.0000000000000000000, 0.0000000000000000000, 1.000000000000000000 ) ) ;
#151 = VECTOR ( 'NONE', #88, 1000.000000000000000 ) ;
#152 = PRESENTATION_STYLE_ASSIGNMENT (( #7 ) ) ;
#153 = LINE ( 'NONE', #178, #42 ) ;
#154 = DIRECTION ( 'NONE',  ( -0.0000000000000000000, 1.000000000000000000, 0.0000000000000000000 ) ) ;
#155 = APPLICATION_CONTEXT ( 'automotive_design' ) ;
#156 = PRODUCT_RELATED_PRODUCT_CATEGORY ( 'part', '', ( #93 ) ) ;
#157 = LINE ( 'NONE', #92, #24 ) ;
#158 = PLANE ( 'NONE',  #132 ) ;
#159 = VECTOR ( 'NONE', #22, 1000.000000000000000 ) ;
#160 = CLOSED_SHELL ( 'NONE', ( #203, #194, #191, #128, #56, #52 ) ) ;
#161 = DIRECTION ( 'NONE',  ( 1.000000000000000000, 0.0000000000000000000, 0.0000000000000000000 ) ) ;
#162 = ORIENTED_EDGE ( 'NONE', *, *, #31, .T. ) ;
#163 =( NAMED_UNIT ( * ) SI_UNIT ( $, .STERADIAN. ) SOLID_ANGLE_UNIT ( ) );
#164 = VERTEX_POINT ( 'NONE', #185 ) ;
#165 = ORIENTED_EDGE ( 'NONE', *, *, #206, .F. ) ;
#166 =( LENGTH_UNIT ( ) NAMED_UNIT ( * ) SI_UNIT ( .MILLI., .METRE. ) );
#167 = DIRECTION ( 'NONE',  ( 0.0000000000000000000, -0.0000000000000000000, -1.000000000000000000 ) ) ;
#168 = PRESENTATION_LAYER_ASSIGNMENT (  '', '', ( #6 ) ) ;
#169 = VECTOR ( 'NONE', #150, 1000.000000000000000 ) ;
#170 = ADVANCED_BREP_SHAPE_REPRESENTATION ( '6520280_CNAJF00', ( #34, #103 ), #72 ) ;
#171 = FACE_OUTER_BOUND ( 'NONE', #172, .T. ) ;
#172 = EDGE_LOOP ( 'NONE', ( #198, #106, #36, #75 ) ) ;
#173 = EDGE_LOOP ( 'NONE', ( #138, #62, #76, #190 ) ) ;
#174 = CARTESIAN_POINT ( 'NONE',  ( -500.0000000000000000, -1000.000000000000000, 0.0000000000000000000 ) ) ;
#175 = EDGE_CURVE ( 'NONE', #5, #164, #74, .T. ) ;
#176 = SURFACE_STYLE_USAGE ( .BOTH. , #117 ) ;
#177 = ORIENTED_EDGE ( 'NONE', *, *, #186, .F. ) ;
#178 = CARTESIAN_POINT ( 'NONE',  ( -500.0000000000000000, -1000.000000000000000, 5.000000000000000000 ) ) ;
#179 = VECTOR ( 'NONE', #116, 1000.000000000000000 ) ;
#180 = CARTESIAN_POINT ( 'NONE',  ( 500.0000000000000000, -1000.000000000000000, 5.000000000000000000 ) ) ;
#181 = DIRECTION ( 'NONE',  ( 0.0000000000000000000, 0.0000000000000000000, 1.000000000000000000 ) ) ;
#182 = LINE ( 'NONE', #80, #159 ) ;
#183 = CARTESIAN_POINT ( 'NONE',  ( -500.0000000000000000, -1000.000000000000000, 0.0000000000000000000 ) ) ;
#184 = VECTOR ( 'NONE', #94, 1000.000000000000000 ) ;
#185 = CARTESIAN_POINT ( 'NONE',  ( -500.0000000000000000, -1000.000000000000000, 5.000000000000000000 ) ) ;
#186 = EDGE_CURVE ( 'NONE', #25, #43, #210, .T. ) ;
#187 = PLANE ( 'NONE',  #211 ) ;
#188 = VECTOR ( 'NONE', #95, 1000.000000000000000 ) ;
#189 = EDGE_CURVE ( 'NONE', #16, #5, #90, .T. ) ;
#190 = ORIENTED_EDGE ( 'NONE', *, *, #4, .T. ) ;
#191 = ADVANCED_FACE ( 'NONE', ( #32 ), #120, .F. ) ;
#192 = CARTESIAN_POINT ( 'NONE',  ( -500.0000000000000000, 1000.000000000000000, 0.0000000000000000000 ) ) ;
#193 = COLOUR_RGB ( '',0.8745098039215686300, 0.9137254901960784000, 1.000000000000000000 ) ;
#194 = ADVANCED_FACE ( 'NONE', ( #85 ), #158, .F. ) ;
#195 = PLANE ( 'NONE',  #44 ) ;
#196 = SURFACE_STYLE_FILL_AREA ( #216 ) ;
#197 = PRESENTATION_LAYER_ASSIGNMENT (  '', '', ( #98 ) ) ;
#198 = ORIENTED_EDGE ( 'NONE', *, *, #124, .T. ) ;
#199 =( NAMED_UNIT ( * ) SI_UNIT ( $, .STERADIAN. ) SOLID_ANGLE_UNIT ( ) );
#200 = ORIENTED_EDGE ( 'NONE', *, *, #189, .F. ) ;
#201 = DIRECTION ( 'NONE',  ( 0.0000000000000000000, 1.000000000000000000, 0.0000000000000000000 ) ) ;
#202 = CARTESIAN_POINT ( 'NONE',  ( 500.0000000000000000, 1000.000000000000000, 5.000000000000000000 ) ) ;
#203 = ADVANCED_FACE ( 'NONE', ( #68 ), #187, .F. ) ;
#204 = CARTESIAN_POINT ( 'NONE',  ( 500.0000000000000000, 1000.000000000000000, 5.000000000000000000 ) ) ;
#205 = FILL_AREA_STYLE ('',( #41 ) ) ;
#206 = EDGE_CURVE ( 'NONE', #164, #43, #215, .T. ) ;
#207 = SHAPE_DEFINITION_REPRESENTATION ( #45, #170 ) ;
#208 = CARTESIAN_POINT ( 'NONE',  ( -500.0000000000000000, 1000.000000000000000, 5.000000000000000000 ) ) ;
#209 = EDGE_CURVE ( 'NONE', #63, #16, #89, .T. ) ;
#210 = LINE ( 'NONE', #183, #188 ) ;
#211 = AXIS2_PLACEMENT_3D ( 'NONE', #104, #135, #71 ) ;
#212 = UNCERTAINTY_MEASURE_WITH_UNIT (LENGTH_MEASURE( 1.000000000000000100E-005 ), #166, 'distance_accuracy_value', 'NONE');
#213 = CARTESIAN_POINT ( 'NONE',  ( 0.0000000000000000000, 0.0000000000000000000, 0.0000000000000000000 ) ) ;
#214 = EDGE_CURVE ( 'NONE', #43, #141, #21, .T. ) ;
#215 = LINE ( 'NONE', #35, #87 ) ;
#216 = FILL_AREA_STYLE ('',( #139 ) ) ;
#217 =( LENGTH_UNIT ( ) NAMED_UNIT ( * ) SI_UNIT ( .MILLI., .METRE. ) );
ENDSEC;
END-ISO-10303-21;
