ISO-10303-21;
HEADER;
FILE_DESCRIPTION (( 'STEP AP214' ),
    '1' );
FILE_NAME ('6520256',
    '2019-02-01T12:48:56',
    ( '' ),
    ('JUGARD+KÜNSTNER GmbH'),
    'SwSTEP 2.0',
    'SolidWorks 2017',
    '' );
FILE_SCHEMA (( 'AUTOMOTIVE_DESIGN' ));
ENDSEC;

DATA;
#1 = LINE ( 'NONE', #100, #123 ) ;
#2 = AXIS2_PLACEMENT_3D ( 'NONE', #188, #27, #87 ) ;
#3 = LINE ( 'NONE', #74, #145 ) ;
#4 = LINE ( 'NONE', #86, #187 ) ;
#5 = VERTEX_POINT ( 'NONE', #112 ) ;
#6 = LINE ( 'NONE', #13, #150 ) ;
#7 = EDGE_LOOP ( 'NONE', ( #52, #182, #19, #193 ) ) ;
#8 = ADVANCED_FACE ( 'NONE', ( #156 ), #184, .T. ) ;
#9 = CARTESIAN_POINT ( 'NONE',  ( -500.0000000000000000, -250.0000000000000000, 6.000000000000000000 ) ) ;
#10 = ORIENTED_EDGE ( 'NONE', *, *, #109, .F. ) ;
#11 = DIRECTION ( 'NONE',  ( 1.000000000000000000, 0.0000000000000000000, 0.0000000000000000000 ) ) ;
#12 = CARTESIAN_POINT ( 'NONE',  ( 500.0000000000000000, -250.0000000000000000, 0.0000000000000000000 ) ) ;
#13 = CARTESIAN_POINT ( 'NONE',  ( -500.0000000000000000, -250.0000000000000000, 6.000000000000000000 ) ) ;
#14 = STYLED_ITEM ( 'NONE', ( #37 ), #26 ) ;
#15 = ORIENTED_EDGE ( 'NONE', *, *, #166, .T. ) ;
#16 = FILL_AREA_STYLE ('',( #88 ) ) ;
#17 = ADVANCED_FACE ( 'NONE', ( #181 ), #185, .F. ) ;
#18 = UNCERTAINTY_MEASURE_WITH_UNIT (LENGTH_MEASURE( 1.000000000000000100E-005 ), #105, 'distance_accuracy_value', 'NONE');
#19 = ORIENTED_EDGE ( 'NONE', *, *, #25, .F. ) ;
#20 = PRODUCT ( '6520256_CNAJF00', '6520256_CNAJF00', '', ( #103 ) ) ;
#21 =( GEOMETRIC_REPRESENTATION_CONTEXT ( 3 ) GLOBAL_UNCERTAINTY_ASSIGNED_CONTEXT ( ( #18 ) ) GLOBAL_UNIT_ASSIGNED_CONTEXT ( ( #105, #176, #192 ) ) REPRESENTATION_CONTEXT ( 'NONE', 'WORKASPACE' ) );
#22 = COLOUR_RGB ( '',0.7529411764705882200, 0.7529411764705882200, 0.7529411764705882200 ) ;
#23 = AXIS2_PLACEMENT_3D ( 'NONE', #128, #82, #198 ) ;
#24 = ORIENTED_EDGE ( 'NONE', *, *, #94, .F. ) ;
#25 = EDGE_CURVE ( 'NONE', #174, #142, #4, .T. ) ;
#26 = ADVANCED_BREP_SHAPE_REPRESENTATION ( '6520256_CNAJF00', ( #39, #147 ), #21 ) ;
#27 = DIRECTION ( 'NONE',  ( 0.0000000000000000000, -1.000000000000000000, 0.0000000000000000000 ) ) ;
#28 = PLANE ( 'NONE',  #158 ) ;
#29 = VERTEX_POINT ( 'NONE', #132 ) ;
#30 = DIRECTION ( 'NONE',  ( -1.000000000000000000, 0.0000000000000000000, 0.0000000000000000000 ) ) ;
#31 = DIRECTION ( 'NONE',  ( -0.0000000000000000000, 0.0000000000000000000, 1.000000000000000000 ) ) ;
#32 = ADVANCED_FACE ( 'NONE', ( #139 ), #98, .F. ) ;
#33 = DIRECTION ( 'NONE',  ( 0.0000000000000000000, -1.000000000000000000, -0.0000000000000000000 ) ) ;
#34 = CARTESIAN_POINT ( 'NONE',  ( -500.0000000000000000, -250.0000000000000000, 0.0000000000000000000 ) ) ;
#35 = ORIENTED_EDGE ( 'NONE', *, *, #36, .F. ) ;
#36 = EDGE_CURVE ( 'NONE', #57, #84, #1, .T. ) ;
#37 = PRESENTATION_STYLE_ASSIGNMENT (( #124 ) ) ;
#38 = ORIENTED_EDGE ( 'NONE', *, *, #92, .T. ) ;
#39 = MANIFOLD_SOLID_BREP ( 'Importiert1', #119 ) ;
#40 = LINE ( 'NONE', #114, #89 ) ;
#41 =( NAMED_UNIT ( * ) PLANE_ANGLE_UNIT ( ) SI_UNIT ( $, .RADIAN. ) );
#42 = SURFACE_SIDE_STYLE ('',( #129 ) ) ;
#43 = ADVANCED_FACE ( 'NONE', ( #78 ), #28, .F. ) ;
#44 = EDGE_LOOP ( 'NONE', ( #180, #165, #53, #67 ) ) ;
#45 = FILL_AREA_STYLE ('',( #175 ) ) ;
#46 = DIRECTION ( 'NONE',  ( 0.0000000000000000000, 1.000000000000000000, -0.0000000000000000000 ) ) ;
#47 = CARTESIAN_POINT ( 'NONE',  ( -500.0000000000000000, 250.0000000000000000, 6.000000000000000000 ) ) ;
#48 = ORIENTED_EDGE ( 'NONE', *, *, #137, .T. ) ;
#49 = DIRECTION ( 'NONE',  ( -0.0000000000000000000, -0.0000000000000000000, 1.000000000000000000 ) ) ;
#50 = ORIENTED_EDGE ( 'NONE', *, *, #25, .T. ) ;
#51 = LINE ( 'NONE', #47, #122 ) ;
#52 = ORIENTED_EDGE ( 'NONE', *, *, #94, .T. ) ;
#53 = ORIENTED_EDGE ( 'NONE', *, *, #160, .F. ) ;
#54 =( GEOMETRIC_REPRESENTATION_CONTEXT ( 3 ) GLOBAL_UNCERTAINTY_ASSIGNED_CONTEXT ( ( #201 ) ) GLOBAL_UNIT_ASSIGNED_CONTEXT ( ( #163, #141, #140 ) ) REPRESENTATION_CONTEXT ( 'NONE', 'WORKASPACE' ) );
#55 = DIRECTION ( 'NONE',  ( 0.0000000000000000000, 0.0000000000000000000, 1.000000000000000000 ) ) ;
#56 = LINE ( 'NONE', #118, #202 ) ;
#57 = VERTEX_POINT ( 'NONE', #85 ) ;
#58 = DIRECTION ( 'NONE',  ( 1.000000000000000000, 0.0000000000000000000, -0.0000000000000000000 ) ) ;
#59 = PRODUCT_DEFINITION_CONTEXT ( 'detailed design', #121, 'design' ) ;
#60 = SURFACE_SIDE_STYLE ('',( #170 ) ) ;
#61 = ORIENTED_EDGE ( 'NONE', *, *, #126, .T. ) ;
#62 = UNCERTAINTY_MEASURE_WITH_UNIT (LENGTH_MEASURE( 1.000000000000000100E-005 ), #131, 'distance_accuracy_value', 'NONE');
#63 = ORIENTED_EDGE ( 'NONE', *, *, #160, .T. ) ;
#64 = LINE ( 'NONE', #136, #179 ) ;
#65 = MECHANICAL_DESIGN_GEOMETRIC_PRESENTATION_REPRESENTATION (  '', ( #144 ), #197 ) ;
#66 = VECTOR ( 'NONE', #58, 1000.000000000000000 ) ;
#67 = ORIENTED_EDGE ( 'NONE', *, *, #137, .F. ) ;
#68 = DIRECTION ( 'NONE',  ( 0.0000000000000000000, 0.0000000000000000000, 1.000000000000000000 ) ) ;
#69 = VERTEX_POINT ( 'NONE', #149 ) ;
#70 = ADVANCED_FACE ( 'NONE', ( #96 ), #99, .F. ) ;
#71 = DIRECTION ( 'NONE',  ( -1.000000000000000000, -0.0000000000000000000, 0.0000000000000000000 ) ) ;
#72 = DIRECTION ( 'NONE',  ( -0.0000000000000000000, 1.000000000000000000, 0.0000000000000000000 ) ) ;
#73 = CARTESIAN_POINT ( 'NONE',  ( 500.0000000000000000, -250.0000000000000000, 6.000000000000000000 ) ) ;
#74 = CARTESIAN_POINT ( 'NONE',  ( -500.0000000000000000, 250.0000000000000000, 6.000000000000000000 ) ) ;
#75 = DIRECTION ( 'NONE',  ( 0.0000000000000000000, 0.0000000000000000000, 1.000000000000000000 ) ) ;
#76 = DIRECTION ( 'NONE',  ( 0.0000000000000000000, -1.000000000000000000, -0.0000000000000000000 ) ) ;
#77 = CARTESIAN_POINT ( 'NONE',  ( 500.0000000000000000, -250.0000000000000000, 6.000000000000000000 ) ) ;
#78 = FACE_OUTER_BOUND ( 'NONE', #7, .T. ) ;
#79 = VECTOR ( 'NONE', #72, 1000.000000000000000 ) ;
#80 = PRESENTATION_STYLE_ASSIGNMENT (( #199 ) ) ;
#81 = EDGE_CURVE ( 'NONE', #174, #5, #107, .T. ) ;
#82 = DIRECTION ( 'NONE',  ( 0.0000000000000000000, 0.0000000000000000000, 1.000000000000000000 ) ) ;
#83 = LINE ( 'NONE', #77, #102 ) ;
#84 = VERTEX_POINT ( 'NONE', #153 ) ;
#85 = CARTESIAN_POINT ( 'NONE',  ( -500.0000000000000000, -250.0000000000000000, 6.000000000000000000 ) ) ;
#86 = CARTESIAN_POINT ( 'NONE',  ( 500.0000000000000000, -250.0000000000000000, 6.000000000000000000 ) ) ;
#87 = DIRECTION ( 'NONE',  ( 0.0000000000000000000, -0.0000000000000000000, -1.000000000000000000 ) ) ;
#88 = FILL_AREA_STYLE_COLOUR ( '', #22 ) ;
#89 = VECTOR ( 'NONE', #71, 1000.000000000000000 ) ;
#90 = APPLICATION_PROTOCOL_DEFINITION ( 'draft international standard', 'automotive_design', 1998, #121 ) ;
#91 = PRODUCT_RELATED_PRODUCT_CATEGORY ( 'part', '', ( #20 ) ) ;
#92 = EDGE_CURVE ( 'NONE', #5, #116, #40, .T. ) ;
#93 = LINE ( 'NONE', #34, #66 ) ;
#94 = EDGE_CURVE ( 'NONE', #5, #29, #56, .T. ) ;
#95 = EDGE_LOOP ( 'NONE', ( #35, #111, #108, #48 ) ) ;
#96 = FACE_OUTER_BOUND ( 'NONE', #110, .T. ) ;
#97 = AXIS2_PLACEMENT_3D ( 'NONE', #130, #68, #196 ) ;
#98 = PLANE ( 'NONE',  #106 ) ;
#99 = PLANE ( 'NONE',  #113 ) ;
#100 = CARTESIAN_POINT ( 'NONE',  ( -500.0000000000000000, -250.0000000000000000, 6.000000000000000000 ) ) ;
#101 = CARTESIAN_POINT ( 'NONE',  ( -500.0000000000000000, 250.0000000000000000, 0.0000000000000000000 ) ) ;
#102 = VECTOR ( 'NONE', #46, 1000.000000000000000 ) ;
#103 = PRODUCT_CONTEXT ( 'NONE', #191, 'mechanical' ) ;
#104 = ADVANCED_FACE ( 'NONE', ( #115 ), #173, .F. ) ;
#105 =( LENGTH_UNIT ( ) NAMED_UNIT ( * ) SI_UNIT ( .MILLI., .METRE. ) );
#106 = AXIS2_PLACEMENT_3D ( 'NONE', #189, #11, #135 ) ;
#107 = LINE ( 'NONE', #154, #79 ) ;
#108 = ORIENTED_EDGE ( 'NONE', *, *, #177, .F. ) ;
#109 = EDGE_CURVE ( 'NONE', #29, #69, #161, .T. ) ;
#110 = EDGE_LOOP ( 'NONE', ( #50, #146, #148, #63 ) ) ;
#111 = ORIENTED_EDGE ( 'NONE', *, *, #171, .F. ) ;
#112 = CARTESIAN_POINT ( 'NONE',  ( 500.0000000000000000, 250.0000000000000000, 0.0000000000000000000 ) ) ;
#113 = AXIS2_PLACEMENT_3D ( 'NONE', #9, #117, #133 ) ;
#114 = CARTESIAN_POINT ( 'NONE',  ( -500.0000000000000000, 250.0000000000000000, 0.0000000000000000000 ) ) ;
#115 = FACE_OUTER_BOUND ( 'NONE', #183, .T. ) ;
#116 = VERTEX_POINT ( 'NONE', #101 ) ;
#117 = DIRECTION ( 'NONE',  ( 0.0000000000000000000, 1.000000000000000000, 0.0000000000000000000 ) ) ;
#118 = CARTESIAN_POINT ( 'NONE',  ( 500.0000000000000000, 250.0000000000000000, 6.000000000000000000 ) ) ;
#119 = CLOSED_SHELL ( 'NONE', ( #17, #32, #104, #43, #70, #8 ) ) ;
#120 = DIRECTION ( 'NONE',  ( -1.000000000000000000, -0.0000000000000000000, -0.0000000000000000000 ) ) ;
#121 = APPLICATION_CONTEXT ( 'automotive_design' ) ;
#122 = VECTOR ( 'NONE', #33, 1000.000000000000000 ) ;
#123 = VECTOR ( 'NONE', #172, 1000.000000000000000 ) ;
#124 = SURFACE_STYLE_USAGE ( .BOTH. , #60 ) ;
#125 = ORIENTED_EDGE ( 'NONE', *, *, #109, .T. ) ;
#126 = EDGE_CURVE ( 'NONE', #57, #142, #6, .T. ) ;
#127 = ORIENTED_EDGE ( 'NONE', *, *, #177, .T. ) ;
#128 = CARTESIAN_POINT ( 'NONE',  ( -500.0000000000000000, -250.0000000000000000, 6.000000000000000000 ) ) ;
#129 = SURFACE_STYLE_FILL_AREA ( #45 ) ;
#130 = CARTESIAN_POINT ( 'NONE',  ( -500.0000000000000000, -250.0000000000000000, 0.0000000000000000000 ) ) ;
#131 =( LENGTH_UNIT ( ) NAMED_UNIT ( * ) SI_UNIT ( .MILLI., .METRE. ) );
#132 = CARTESIAN_POINT ( 'NONE',  ( 500.0000000000000000, 250.0000000000000000, 6.000000000000000000 ) ) ;
#133 = DIRECTION ( 'NONE',  ( 0.0000000000000000000, -0.0000000000000000000, 1.000000000000000000 ) ) ;
#134 = ORIENTED_EDGE ( 'NONE', *, *, #171, .T. ) ;
#135 = DIRECTION ( 'NONE',  ( 0.0000000000000000000, 0.0000000000000000000, -1.000000000000000000 ) ) ;
#136 = CARTESIAN_POINT ( 'NONE',  ( -500.0000000000000000, -250.0000000000000000, 0.0000000000000000000 ) ) ;
#137 = EDGE_CURVE ( 'NONE', #116, #84, #64, .T. ) ;
#138 = DIRECTION ( 'NONE',  ( 1.000000000000000000, 0.0000000000000000000, 0.0000000000000000000 ) ) ;
#139 = FACE_OUTER_BOUND ( 'NONE', #95, .T. ) ;
#140 =( NAMED_UNIT ( * ) SI_UNIT ( $, .STERADIAN. ) SOLID_ANGLE_UNIT ( ) );
#141 =( NAMED_UNIT ( * ) PLANE_ANGLE_UNIT ( ) SI_UNIT ( $, .RADIAN. ) );
#142 = VERTEX_POINT ( 'NONE', #159 ) ;
#143 = VECTOR ( 'NONE', #120, 1000.000000000000000 ) ;
#144 = STYLED_ITEM ( 'NONE', ( #80 ), #39 ) ;
#145 = VECTOR ( 'NONE', #49, 1000.000000000000000 ) ;
#146 = ORIENTED_EDGE ( 'NONE', *, *, #126, .F. ) ;
#147 = AXIS2_PLACEMENT_3D ( 'NONE', #162, #75, #138 ) ;
#148 = ORIENTED_EDGE ( 'NONE', *, *, #36, .T. ) ;
#149 = CARTESIAN_POINT ( 'NONE',  ( -500.0000000000000000, 250.0000000000000000, 6.000000000000000000 ) ) ;
#150 = VECTOR ( 'NONE', #190, 1000.000000000000000 ) ;
#151 = EDGE_LOOP ( 'NONE', ( #15, #125, #134, #61 ) ) ;
#152 =( NAMED_UNIT ( * ) SI_UNIT ( $, .STERADIAN. ) SOLID_ANGLE_UNIT ( ) );
#153 = CARTESIAN_POINT ( 'NONE',  ( -500.0000000000000000, -250.0000000000000000, 0.0000000000000000000 ) ) ;
#154 = CARTESIAN_POINT ( 'NONE',  ( 500.0000000000000000, -250.0000000000000000, 0.0000000000000000000 ) ) ;
#155 = SHAPE_DEFINITION_REPRESENTATION ( #186, #26 ) ;
#156 = FACE_OUTER_BOUND ( 'NONE', #151, .T. ) ;
#157 = APPLICATION_PROTOCOL_DEFINITION ( 'draft international standard', 'automotive_design', 1998, #191 ) ;
#158 = AXIS2_PLACEMENT_3D ( 'NONE', #73, #30, #55 ) ;
#159 = CARTESIAN_POINT ( 'NONE',  ( 500.0000000000000000, -250.0000000000000000, 6.000000000000000000 ) ) ;
#160 = EDGE_CURVE ( 'NONE', #84, #174, #93, .T. ) ;
#161 = LINE ( 'NONE', #178, #143 ) ;
#162 = CARTESIAN_POINT ( 'NONE',  ( 0.0000000000000000000, 0.0000000000000000000, 0.0000000000000000000 ) ) ;
#163 =( LENGTH_UNIT ( ) NAMED_UNIT ( * ) SI_UNIT ( .MILLI., .METRE. ) );
#164 = PRODUCT_DEFINITION ( 'UNKNOWN', '', #169, #59 ) ;
#165 = ORIENTED_EDGE ( 'NONE', *, *, #81, .F. ) ;
#166 = EDGE_CURVE ( 'NONE', #142, #29, #83, .T. ) ;
#167 = PRESENTATION_LAYER_ASSIGNMENT (  '', '', ( #14 ) ) ;
#168 = COLOUR_RGB ( '',1.000000000000000000, 1.000000000000000000, 1.000000000000000000 ) ;
#169 = PRODUCT_DEFINITION_FORMATION_WITH_SPECIFIED_SOURCE ( 'ANY', '', #20, .NOT_KNOWN. ) ;
#170 = SURFACE_STYLE_FILL_AREA ( #16 ) ;
#171 = EDGE_CURVE ( 'NONE', #69, #57, #51, .T. ) ;
#172 = DIRECTION ( 'NONE',  ( 0.0000000000000000000, 0.0000000000000000000, -1.000000000000000000 ) ) ;
#173 = PLANE ( 'NONE',  #2 ) ;
#174 = VERTEX_POINT ( 'NONE', #12 ) ;
#175 = FILL_AREA_STYLE_COLOUR ( '', #168 ) ;
#176 =( NAMED_UNIT ( * ) PLANE_ANGLE_UNIT ( ) SI_UNIT ( $, .RADIAN. ) );
#177 = EDGE_CURVE ( 'NONE', #116, #69, #3, .T. ) ;
#178 = CARTESIAN_POINT ( 'NONE',  ( 500.0000000000000000, 250.0000000000000000, 6.000000000000000000 ) ) ;
#179 = VECTOR ( 'NONE', #76, 1000.000000000000000 ) ;
#180 = ORIENTED_EDGE ( 'NONE', *, *, #92, .F. ) ;
#181 = FACE_OUTER_BOUND ( 'NONE', #44, .T. ) ;
#182 = ORIENTED_EDGE ( 'NONE', *, *, #166, .F. ) ;
#183 = EDGE_LOOP ( 'NONE', ( #127, #10, #24, #38 ) ) ;
#184 = PLANE ( 'NONE',  #23 ) ;
#185 = PLANE ( 'NONE',  #97 ) ;
#186 = PRODUCT_DEFINITION_SHAPE ( 'NONE', 'NONE',  #164 ) ;
#187 = VECTOR ( 'NONE', #200, 1000.000000000000000 ) ;
#188 = CARTESIAN_POINT ( 'NONE',  ( 500.0000000000000000, 250.0000000000000000, 6.000000000000000000 ) ) ;
#189 = CARTESIAN_POINT ( 'NONE',  ( -500.0000000000000000, 250.0000000000000000, 6.000000000000000000 ) ) ;
#190 = DIRECTION ( 'NONE',  ( 1.000000000000000000, 0.0000000000000000000, -0.0000000000000000000 ) ) ;
#191 = APPLICATION_CONTEXT ( 'automotive_design' ) ;
#192 =( NAMED_UNIT ( * ) SI_UNIT ( $, .STERADIAN. ) SOLID_ANGLE_UNIT ( ) );
#193 = ORIENTED_EDGE ( 'NONE', *, *, #81, .T. ) ;
#194 = MECHANICAL_DESIGN_GEOMETRIC_PRESENTATION_REPRESENTATION (  '', ( #14 ), #54 ) ;
#195 = PRESENTATION_LAYER_ASSIGNMENT (  '', '', ( #144 ) ) ;
#196 = DIRECTION ( 'NONE',  ( 1.000000000000000000, 0.0000000000000000000, -0.0000000000000000000 ) ) ;
#197 =( GEOMETRIC_REPRESENTATION_CONTEXT ( 3 ) GLOBAL_UNCERTAINTY_ASSIGNED_CONTEXT ( ( #62 ) ) GLOBAL_UNIT_ASSIGNED_CONTEXT ( ( #131, #41, #152 ) ) REPRESENTATION_CONTEXT ( 'NONE', 'WORKASPACE' ) );
#198 = DIRECTION ( 'NONE',  ( 1.000000000000000000, 0.0000000000000000000, -0.0000000000000000000 ) ) ;
#199 = SURFACE_STYLE_USAGE ( .BOTH. , #42 ) ;
#200 = DIRECTION ( 'NONE',  ( 0.0000000000000000000, 0.0000000000000000000, 1.000000000000000000 ) ) ;
#201 = UNCERTAINTY_MEASURE_WITH_UNIT (LENGTH_MEASURE( 1.000000000000000100E-005 ), #163, 'distance_accuracy_value', 'NONE');
#202 = VECTOR ( 'NONE', #31, 1000.000000000000000 ) ;
ENDSEC;
END-ISO-10303-21;
