ISO-10303-21;
HEADER;
FILE_DESCRIPTION (( 'STEP AP214' ),
    '1' );
FILE_NAME ('6520249',
    '2019-02-01T12:48:35',
    ( '' ),
    ('JUGARD+KÜNSTNER GmbH'),
    'SwSTEP 2.0',
    'SolidWorks 2017',
    '' );
FILE_SCHEMA (( 'AUTOMOTIVE_DESIGN' ));
ENDSEC;

DATA;
#1 = EDGE_LOOP ( 'NONE', ( #160, #24, #169, #74 ) ) ;
#2 = CARTESIAN_POINT ( 'NONE',  ( 0.0000000000000000000, 0.0000000000000000000, 0.0000000000000000000 ) ) ;
#3 = DIRECTION ( 'NONE',  ( 1.000000000000000000, 0.0000000000000000000, 0.0000000000000000000 ) ) ;
#4 = LINE ( 'NONE', #20, #109 ) ;
#5 = VERTEX_POINT ( 'NONE', #97 ) ;
#6 = VERTEX_POINT ( 'NONE', #75 ) ;
#7 = ORIENTED_EDGE ( 'NONE', *, *, #21, .T. ) ;
#8 = ADVANCED_FACE ( 'NONE', ( #198 ), #147, .F. ) ;
#9 = CARTESIAN_POINT ( 'NONE',  ( 1525.000000000000200, -750.0000000000000000, 3.000000000000000000 ) ) ;
#10 = AXIS2_PLACEMENT_3D ( 'NONE', #59, #162, #199 ) ;
#11 = ORIENTED_EDGE ( 'NONE', *, *, #108, .F. ) ;
#12 = DIRECTION ( 'NONE',  ( 1.000000000000000000, 0.0000000000000000000, -0.0000000000000000000 ) ) ;
#13 = UNCERTAINTY_MEASURE_WITH_UNIT (LENGTH_MEASURE( 1.000000000000000100E-005 ), #155, 'distance_accuracy_value', 'NONE');
#14 = CARTESIAN_POINT ( 'NONE',  ( 1525.000000000000200, 750.0000000000000000, 3.000000000000000000 ) ) ;
#15 = DIRECTION ( 'NONE',  ( -1.000000000000000000, -0.0000000000000000000, 0.0000000000000000000 ) ) ;
#16 = SHAPE_DEFINITION_REPRESENTATION ( #195, #56 ) ;
#17 = VECTOR ( 'NONE', #15, 1000.000000000000000 ) ;
#18 = EDGE_LOOP ( 'NONE', ( #7, #27, #125, #71 ) ) ;
#19 = CARTESIAN_POINT ( 'NONE',  ( -1525.000000000000200, 750.0000000000000000, 3.000000000000000000 ) ) ;
#20 = CARTESIAN_POINT ( 'NONE',  ( -1525.000000000000200, -750.0000000000000000, 3.000000000000000000 ) ) ;
#21 = EDGE_CURVE ( 'NONE', #128, #5, #23, .T. ) ;
#22 = FILL_AREA_STYLE_COLOUR ( '', #168 ) ;
#23 = LINE ( 'NONE', #182, #29 ) ;
#24 = ORIENTED_EDGE ( 'NONE', *, *, #94, .F. ) ;
#25 = DIRECTION ( 'NONE',  ( 0.0000000000000000000, 0.0000000000000000000, 1.000000000000000000 ) ) ;
#26 = PRODUCT ( '6520249_CNAJF00', '6520249_CNAJF00', '', ( #52 ) ) ;
#27 = ORIENTED_EDGE ( 'NONE', *, *, #96, .F. ) ;
#28 = VECTOR ( 'NONE', #134, 1000.000000000000000 ) ;
#29 = VECTOR ( 'NONE', #86, 1000.000000000000000 ) ;
#30 = ORIENTED_EDGE ( 'NONE', *, *, #173, .F. ) ;
#31 = LINE ( 'NONE', #63, #145 ) ;
#32 = DIRECTION ( 'NONE',  ( -0.0000000000000000000, 1.000000000000000000, 0.0000000000000000000 ) ) ;
#33 = DIRECTION ( 'NONE',  ( 1.000000000000000000, 0.0000000000000000000, -0.0000000000000000000 ) ) ;
#34 = DIRECTION ( 'NONE',  ( 1.000000000000000000, 0.0000000000000000000, -0.0000000000000000000 ) ) ;
#35 = CARTESIAN_POINT ( 'NONE',  ( 1525.000000000000200, -750.0000000000000000, 0.0000000000000000000 ) ) ;
#36 = FACE_OUTER_BOUND ( 'NONE', #1, .T. ) ;
#37 = DIRECTION ( 'NONE',  ( -1.000000000000000000, -0.0000000000000000000, -0.0000000000000000000 ) ) ;
#38 = EDGE_CURVE ( 'NONE', #67, #82, #70, .T. ) ;
#39 =( NAMED_UNIT ( * ) PLANE_ANGLE_UNIT ( ) SI_UNIT ( $, .RADIAN. ) );
#40 = LINE ( 'NONE', #133, #53 ) ;
#41 =( LENGTH_UNIT ( ) NAMED_UNIT ( * ) SI_UNIT ( .MILLI., .METRE. ) );
#42 = PRESENTATION_LAYER_ASSIGNMENT (  '', '', ( #50 ) ) ;
#43 = EDGE_CURVE ( 'NONE', #143, #67, #73, .T. ) ;
#44 = ORIENTED_EDGE ( 'NONE', *, *, #80, .T. ) ;
#45 = FACE_OUTER_BOUND ( 'NONE', #191, .T. ) ;
#46 = VERTEX_POINT ( 'NONE', #183 ) ;
#47 = CARTESIAN_POINT ( 'NONE',  ( -1525.000000000000200, -750.0000000000000000, 0.0000000000000000000 ) ) ;
#48 = CARTESIAN_POINT ( 'NONE',  ( -1525.000000000000200, -750.0000000000000000, 0.0000000000000000000 ) ) ;
#49 = CARTESIAN_POINT ( 'NONE',  ( -1525.000000000000200, 750.0000000000000000, 0.0000000000000000000 ) ) ;
#50 = STYLED_ITEM ( 'NONE', ( #127 ), #56 ) ;
#51 = CARTESIAN_POINT ( 'NONE',  ( -1525.000000000000200, 750.0000000000000000, 0.0000000000000000000 ) ) ;
#52 = PRODUCT_CONTEXT ( 'NONE', #138, 'mechanical' ) ;
#53 = VECTOR ( 'NONE', #150, 1000.000000000000000 ) ;
#54 = ORIENTED_EDGE ( 'NONE', *, *, #38, .T. ) ;
#55 = ORIENTED_EDGE ( 'NONE', *, *, #43, .T. ) ;
#56 = ADVANCED_BREP_SHAPE_REPRESENTATION ( '6520249_CNAJF00', ( #88, #115 ), #189 ) ;
#57 = ORIENTED_EDGE ( 'NONE', *, *, #80, .F. ) ;
#58 = ORIENTED_EDGE ( 'NONE', *, *, #96, .T. ) ;
#59 = CARTESIAN_POINT ( 'NONE',  ( 1525.000000000000200, 750.0000000000000000, 3.000000000000000000 ) ) ;
#60 = CARTESIAN_POINT ( 'NONE',  ( 1525.000000000000200, -750.0000000000000000, 3.000000000000000000 ) ) ;
#61 = SURFACE_STYLE_FILL_AREA ( #174 ) ;
#62 = DIRECTION ( 'NONE',  ( -0.0000000000000000000, 0.0000000000000000000, 1.000000000000000000 ) ) ;
#63 = CARTESIAN_POINT ( 'NONE',  ( 1525.000000000000200, 750.0000000000000000, 3.000000000000000000 ) ) ;
#64 = DIRECTION ( 'NONE',  ( 0.0000000000000000000, 0.0000000000000000000, 1.000000000000000000 ) ) ;
#65 = LINE ( 'NONE', #120, #89 ) ;
#66 = CARTESIAN_POINT ( 'NONE',  ( -1525.000000000000200, -750.0000000000000000, 0.0000000000000000000 ) ) ;
#67 = VERTEX_POINT ( 'NONE', #131 ) ;
#68 =( LENGTH_UNIT ( ) NAMED_UNIT ( * ) SI_UNIT ( .MILLI., .METRE. ) );
#69 = LINE ( 'NONE', #66, #28 ) ;
#70 = LINE ( 'NONE', #9, #142 ) ;
#71 = ORIENTED_EDGE ( 'NONE', *, *, #148, .T. ) ;
#72 = VECTOR ( 'NONE', #12, 1000.000000000000000 ) ;
#73 = LINE ( 'NONE', #98, #72 ) ;
#74 = ORIENTED_EDGE ( 'NONE', *, *, #173, .T. ) ;
#75 = CARTESIAN_POINT ( 'NONE',  ( 1525.000000000000200, 750.0000000000000000, 0.0000000000000000000 ) ) ;
#76 = COLOUR_RGB ( '',0.7529411764705882200, 0.7529411764705882200, 0.7529411764705882200 ) ;
#77 = DIRECTION ( 'NONE',  ( 0.0000000000000000000, 1.000000000000000000, -0.0000000000000000000 ) ) ;
#78 = CARTESIAN_POINT ( 'NONE',  ( 1525.000000000000200, -750.0000000000000000, 3.000000000000000000 ) ) ;
#79 = DIRECTION ( 'NONE',  ( 0.0000000000000000000, -0.0000000000000000000, 1.000000000000000000 ) ) ;
#80 = EDGE_CURVE ( 'NONE', #135, #82, #65, .T. ) ;
#81 = APPLICATION_CONTEXT ( 'automotive_design' ) ;
#82 = VERTEX_POINT ( 'NONE', #78 ) ;
#83 = CLOSED_SHELL ( 'NONE', ( #112, #187, #8, #164, #152, #119 ) ) ;
#84 = ORIENTED_EDGE ( 'NONE', *, *, #99, .F. ) ;
#85 = ORIENTED_EDGE ( 'NONE', *, *, #94, .T. ) ;
#86 = DIRECTION ( 'NONE',  ( -0.0000000000000000000, -0.0000000000000000000, 1.000000000000000000 ) ) ;
#87 = CARTESIAN_POINT ( 'NONE',  ( -1525.000000000000200, -750.0000000000000000, 3.000000000000000000 ) ) ;
#88 = MANIFOLD_SOLID_BREP ( 'Importiert1', #83 ) ;
#89 = VECTOR ( 'NONE', #34, 1000.000000000000000 ) ;
#90 = DIRECTION ( 'NONE',  ( 0.0000000000000000000, 0.0000000000000000000, 1.000000000000000000 ) ) ;
#91 = EDGE_LOOP ( 'NONE', ( #201, #11, #159, #30 ) ) ;
#92 = PLANE ( 'NONE',  #110 ) ;
#93 =( NAMED_UNIT ( * ) PLANE_ANGLE_UNIT ( ) SI_UNIT ( $, .RADIAN. ) );
#94 = EDGE_CURVE ( 'NONE', #5, #135, #40, .T. ) ;
#95 = VECTOR ( 'NONE', #62, 1000.000000000000000 ) ;
#96 = EDGE_CURVE ( 'NONE', #46, #5, #31, .T. ) ;
#97 = CARTESIAN_POINT ( 'NONE',  ( -1525.000000000000200, 750.0000000000000000, 3.000000000000000000 ) ) ;
#98 = CARTESIAN_POINT ( 'NONE',  ( -1525.000000000000200, -750.0000000000000000, 0.0000000000000000000 ) ) ;
#99 = EDGE_CURVE ( 'NONE', #82, #46, #177, .T. ) ;
#100 = LINE ( 'NONE', #49, #17 ) ;
#101 = FILL_AREA_STYLE ('',( #22 ) ) ;
#102 = PLANE ( 'NONE',  #197 ) ;
#103 =( GEOMETRIC_REPRESENTATION_CONTEXT ( 3 ) GLOBAL_UNCERTAINTY_ASSIGNED_CONTEXT ( ( #144 ) ) GLOBAL_UNIT_ASSIGNED_CONTEXT ( ( #41, #39, #192 ) ) REPRESENTATION_CONTEXT ( 'NONE', 'WORKASPACE' ) );
#104 = DIRECTION ( 'NONE',  ( 0.0000000000000000000, 0.0000000000000000000, 1.000000000000000000 ) ) ;
#105 = ORIENTED_EDGE ( 'NONE', *, *, #158, .T. ) ;
#106 = SURFACE_STYLE_FILL_AREA ( #101 ) ;
#107 = MECHANICAL_DESIGN_GEOMETRIC_PRESENTATION_REPRESENTATION (  '', ( #50 ), #103 ) ;
#108 = EDGE_CURVE ( 'NONE', #67, #6, #154, .T. ) ;
#109 = VECTOR ( 'NONE', #136, 1000.000000000000000 ) ;
#110 = AXIS2_PLACEMENT_3D ( 'NONE', #47, #104, #170 ) ;
#111 = PRODUCT_DEFINITION_FORMATION_WITH_SPECIFIED_SOURCE ( 'ANY', '', #26, .NOT_KNOWN. ) ;
#112 = ADVANCED_FACE ( 'NONE', ( #149 ), #92, .F. ) ;
#113 = DIRECTION ( 'NONE',  ( 0.0000000000000000000, 0.0000000000000000000, 1.000000000000000000 ) ) ;
#114 = PLANE ( 'NONE',  #153 ) ;
#115 = AXIS2_PLACEMENT_3D ( 'NONE', #2, #25, #3 ) ;
#116 = CARTESIAN_POINT ( 'NONE',  ( -1525.000000000000200, -750.0000000000000000, 3.000000000000000000 ) ) ;
#117 = DIRECTION ( 'NONE',  ( 1.000000000000000000, 0.0000000000000000000, 0.0000000000000000000 ) ) ;
#118 = ORIENTED_EDGE ( 'NONE', *, *, #108, .T. ) ;
#119 = ADVANCED_FACE ( 'NONE', ( #194 ), #114, .T. ) ;
#120 = CARTESIAN_POINT ( 'NONE',  ( -1525.000000000000200, -750.0000000000000000, 3.000000000000000000 ) ) ;
#121 = PRODUCT_DEFINITION ( 'UNKNOWN', '', #111, #186 ) ;
#122 = SURFACE_SIDE_STYLE ('',( #61 ) ) ;
#123 = APPLICATION_PROTOCOL_DEFINITION ( 'draft international standard', 'automotive_design', 1998, #138 ) ;
#124 = STYLED_ITEM ( 'NONE', ( #196 ), #88 ) ;
#125 = ORIENTED_EDGE ( 'NONE', *, *, #176, .F. ) ;
#126 = PRODUCT_RELATED_PRODUCT_CATEGORY ( 'part', '', ( #26 ) ) ;
#127 = PRESENTATION_STYLE_ASSIGNMENT (( #193 ) ) ;
#128 = VERTEX_POINT ( 'NONE', #51 ) ;
#129 = UNCERTAINTY_MEASURE_WITH_UNIT (LENGTH_MEASURE( 1.000000000000000100E-005 ), #68, 'distance_accuracy_value', 'NONE');
#130 =( GEOMETRIC_REPRESENTATION_CONTEXT ( 3 ) GLOBAL_UNCERTAINTY_ASSIGNED_CONTEXT ( ( #13 ) ) GLOBAL_UNIT_ASSIGNED_CONTEXT ( ( #155, #202, #167 ) ) REPRESENTATION_CONTEXT ( 'NONE', 'WORKASPACE' ) );
#131 = CARTESIAN_POINT ( 'NONE',  ( 1525.000000000000200, -750.0000000000000000, 0.0000000000000000000 ) ) ;
#132 = PRESENTATION_LAYER_ASSIGNMENT (  '', '', ( #124 ) ) ;
#133 = CARTESIAN_POINT ( 'NONE',  ( -1525.000000000000200, 750.0000000000000000, 3.000000000000000000 ) ) ;
#134 = DIRECTION ( 'NONE',  ( 0.0000000000000000000, -1.000000000000000000, -0.0000000000000000000 ) ) ;
#135 = VERTEX_POINT ( 'NONE', #157 ) ;
#136 = DIRECTION ( 'NONE',  ( 0.0000000000000000000, 0.0000000000000000000, -1.000000000000000000 ) ) ;
#137 = LINE ( 'NONE', #14, #95 ) ;
#138 = APPLICATION_CONTEXT ( 'automotive_design' ) ;
#139 = DIRECTION ( 'NONE',  ( 0.0000000000000000000, 0.0000000000000000000, -1.000000000000000000 ) ) ;
#140 = APPLICATION_PROTOCOL_DEFINITION ( 'draft international standard', 'automotive_design', 1998, #81 ) ;
#141 = AXIS2_PLACEMENT_3D ( 'NONE', #87, #188, #79 ) ;
#142 = VECTOR ( 'NONE', #113, 1000.000000000000000 ) ;
#143 = VERTEX_POINT ( 'NONE', #48 ) ;
#144 = UNCERTAINTY_MEASURE_WITH_UNIT (LENGTH_MEASURE( 1.000000000000000100E-005 ), #41, 'distance_accuracy_value', 'NONE');
#145 = VECTOR ( 'NONE', #37, 1000.000000000000000 ) ;
#146 = EDGE_LOOP ( 'NONE', ( #156, #84, #178, #118 ) ) ;
#147 = PLANE ( 'NONE',  #10 ) ;
#148 = EDGE_CURVE ( 'NONE', #6, #128, #100, .T. ) ;
#149 = FACE_OUTER_BOUND ( 'NONE', #91, .T. ) ;
#150 = DIRECTION ( 'NONE',  ( 0.0000000000000000000, -1.000000000000000000, -0.0000000000000000000 ) ) ;
#151 = FILL_AREA_STYLE_COLOUR ( '', #76 ) ;
#152 = ADVANCED_FACE ( 'NONE', ( #45 ), #190, .F. ) ;
#153 = AXIS2_PLACEMENT_3D ( 'NONE', #116, #64, #33 ) ;
#154 = LINE ( 'NONE', #35, #180 ) ;
#155 =( LENGTH_UNIT ( ) NAMED_UNIT ( * ) SI_UNIT ( .MILLI., .METRE. ) );
#156 = ORIENTED_EDGE ( 'NONE', *, *, #176, .T. ) ;
#157 = CARTESIAN_POINT ( 'NONE',  ( -1525.000000000000200, -750.0000000000000000, 3.000000000000000000 ) ) ;
#158 = EDGE_CURVE ( 'NONE', #135, #143, #4, .T. ) ;
#159 = ORIENTED_EDGE ( 'NONE', *, *, #43, .F. ) ;
#160 = ORIENTED_EDGE ( 'NONE', *, *, #158, .F. ) ;
#161 = AXIS2_PLACEMENT_3D ( 'NONE', #171, #184, #90 ) ;
#162 = DIRECTION ( 'NONE',  ( 0.0000000000000000000, -1.000000000000000000, 0.0000000000000000000 ) ) ;
#163 = ORIENTED_EDGE ( 'NONE', *, *, #99, .T. ) ;
#164 = ADVANCED_FACE ( 'NONE', ( #200 ), #172, .F. ) ;
#165 = SURFACE_STYLE_USAGE ( .BOTH. , #185 ) ;
#166 = MECHANICAL_DESIGN_GEOMETRIC_PRESENTATION_REPRESENTATION (  '', ( #124 ), #130 ) ;
#167 =( NAMED_UNIT ( * ) SI_UNIT ( $, .STERADIAN. ) SOLID_ANGLE_UNIT ( ) );
#168 = COLOUR_RGB ( '',0.2000000000000000100, 0.2000000000000000100, 0.2000000000000000100 ) ;
#169 = ORIENTED_EDGE ( 'NONE', *, *, #21, .F. ) ;
#170 = DIRECTION ( 'NONE',  ( 1.000000000000000000, 0.0000000000000000000, -0.0000000000000000000 ) ) ;
#171 = CARTESIAN_POINT ( 'NONE',  ( 1525.000000000000200, -750.0000000000000000, 3.000000000000000000 ) ) ;
#172 = PLANE ( 'NONE',  #161 ) ;
#173 = EDGE_CURVE ( 'NONE', #128, #143, #69, .T. ) ;
#174 = FILL_AREA_STYLE ('',( #151 ) ) ;
#175 =( NAMED_UNIT ( * ) SI_UNIT ( $, .STERADIAN. ) SOLID_ANGLE_UNIT ( ) );
#176 = EDGE_CURVE ( 'NONE', #6, #46, #137, .T. ) ;
#177 = LINE ( 'NONE', #60, #179 ) ;
#178 = ORIENTED_EDGE ( 'NONE', *, *, #38, .F. ) ;
#179 = VECTOR ( 'NONE', #77, 1000.000000000000000 ) ;
#180 = VECTOR ( 'NONE', #32, 1000.000000000000000 ) ;
#181 = EDGE_LOOP ( 'NONE', ( #163, #58, #85, #44 ) ) ;
#182 = CARTESIAN_POINT ( 'NONE',  ( -1525.000000000000200, 750.0000000000000000, 3.000000000000000000 ) ) ;
#183 = CARTESIAN_POINT ( 'NONE',  ( 1525.000000000000200, 750.0000000000000000, 3.000000000000000000 ) ) ;
#184 = DIRECTION ( 'NONE',  ( -1.000000000000000000, 0.0000000000000000000, 0.0000000000000000000 ) ) ;
#185 = SURFACE_SIDE_STYLE ('',( #106 ) ) ;
#186 = PRODUCT_DEFINITION_CONTEXT ( 'detailed design', #81, 'design' ) ;
#187 = ADVANCED_FACE ( 'NONE', ( #36 ), #102, .F. ) ;
#188 = DIRECTION ( 'NONE',  ( 0.0000000000000000000, 1.000000000000000000, 0.0000000000000000000 ) ) ;
#189 =( GEOMETRIC_REPRESENTATION_CONTEXT ( 3 ) GLOBAL_UNCERTAINTY_ASSIGNED_CONTEXT ( ( #129 ) ) GLOBAL_UNIT_ASSIGNED_CONTEXT ( ( #68, #93, #175 ) ) REPRESENTATION_CONTEXT ( 'NONE', 'WORKASPACE' ) );
#190 = PLANE ( 'NONE',  #141 ) ;
#191 = EDGE_LOOP ( 'NONE', ( #54, #57, #105, #55 ) ) ;
#192 =( NAMED_UNIT ( * ) SI_UNIT ( $, .STERADIAN. ) SOLID_ANGLE_UNIT ( ) );
#193 = SURFACE_STYLE_USAGE ( .BOTH. , #122 ) ;
#194 = FACE_OUTER_BOUND ( 'NONE', #181, .T. ) ;
#195 = PRODUCT_DEFINITION_SHAPE ( 'NONE', 'NONE',  #121 ) ;
#196 = PRESENTATION_STYLE_ASSIGNMENT (( #165 ) ) ;
#197 = AXIS2_PLACEMENT_3D ( 'NONE', #19, #117, #139 ) ;
#198 = FACE_OUTER_BOUND ( 'NONE', #18, .T. ) ;
#199 = DIRECTION ( 'NONE',  ( 0.0000000000000000000, -0.0000000000000000000, -1.000000000000000000 ) ) ;
#200 = FACE_OUTER_BOUND ( 'NONE', #146, .T. ) ;
#201 = ORIENTED_EDGE ( 'NONE', *, *, #148, .F. ) ;
#202 =( NAMED_UNIT ( * ) PLANE_ANGLE_UNIT ( ) SI_UNIT ( $, .RADIAN. ) );
ENDSEC;
END-ISO-10303-21;
