ISO-10303-21;
HEADER;
FILE_DESCRIPTION (( 'STEP AP214' ),
    '1' );
FILE_NAME ('6520225',
    '2019-02-01T12:48:28',
    ( '' ),
    ('JUGARD+KÜNSTNER GmbH'),
    'SwSTEP 2.0',
    'SolidWorks 2017',
    '' );
FILE_SCHEMA (( 'AUTOMOTIVE_DESIGN' ));
ENDSEC;

DATA;
#1 = VECTOR ( 'NONE', #8, 1000.000000000000000 ) ;
#2 = AXIS2_PLACEMENT_3D ( 'NONE', #68, #5, #97 ) ;
#3 = PRODUCT_DEFINITION_CONTEXT ( 'detailed design', #169, 'design' ) ;
#4 = CARTESIAN_POINT ( 'NONE',  ( 500.0000000000000000, 250.0000000000000000, 3.000000000000000000 ) ) ;
#5 = DIRECTION ( 'NONE',  ( 0.0000000000000000000, 1.000000000000000000, 0.0000000000000000000 ) ) ;
#6 = FACE_OUTER_BOUND ( 'NONE', #116, .T. ) ;
#7 = DIRECTION ( 'NONE',  ( 1.000000000000000000, 0.0000000000000000000, -0.0000000000000000000 ) ) ;
#8 = DIRECTION ( 'NONE',  ( -0.0000000000000000000, -0.0000000000000000000, 1.000000000000000000 ) ) ;
#9 = PRESENTATION_STYLE_ASSIGNMENT (( #14 ) ) ;
#10 = VERTEX_POINT ( 'NONE', #66 ) ;
#11 = DIRECTION ( 'NONE',  ( 1.000000000000000000, 0.0000000000000000000, -0.0000000000000000000 ) ) ;
#12 =( NAMED_UNIT ( * ) SI_UNIT ( $, .STERADIAN. ) SOLID_ANGLE_UNIT ( ) );
#13 = CARTESIAN_POINT ( 'NONE',  ( -500.0000000000000000, -250.0000000000000000, -7.000000000000000000 ) ) ;
#14 = SURFACE_STYLE_USAGE ( .BOTH. , #26 ) ;
#15 = PRESENTATION_LAYER_ASSIGNMENT (  '', '', ( #82 ) ) ;
#16 = EDGE_LOOP ( 'NONE', ( #197, #64, #110, #120 ) ) ;
#17 = STYLED_ITEM ( 'NONE', ( #9 ), #179 ) ;
#18 = EDGE_CURVE ( 'NONE', #140, #10, #121, .T. ) ;
#19 =( GEOMETRIC_REPRESENTATION_CONTEXT ( 3 ) GLOBAL_UNCERTAINTY_ASSIGNED_CONTEXT ( ( #58 ) ) GLOBAL_UNIT_ASSIGNED_CONTEXT ( ( #86, #73, #25 ) ) REPRESENTATION_CONTEXT ( 'NONE', 'WORKASPACE' ) );
#20 = ORIENTED_EDGE ( 'NONE', *, *, #56, .F. ) ;
#21 = COLOUR_RGB ( '',0.7529411764705882200, 0.7529411764705882200, 0.7529411764705882200 ) ;
#22 = VECTOR ( 'NONE', #125, 1000.000000000000000 ) ;
#23 = ORIENTED_EDGE ( 'NONE', *, *, #171, .F. ) ;
#24 = DIRECTION ( 'NONE',  ( 0.0000000000000000000, 1.000000000000000000, -0.0000000000000000000 ) ) ;
#25 =( NAMED_UNIT ( * ) SI_UNIT ( $, .STERADIAN. ) SOLID_ANGLE_UNIT ( ) );
#26 = SURFACE_SIDE_STYLE ('',( #141 ) ) ;
#27 = DIRECTION ( 'NONE',  ( 0.0000000000000000000, 0.0000000000000000000, 1.000000000000000000 ) ) ;
#28 = AXIS2_PLACEMENT_3D ( 'NONE', #117, #102, #47 ) ;
#29 = CARTESIAN_POINT ( 'NONE',  ( -500.0000000000000000, -250.0000000000000000, -7.000000000000000000 ) ) ;
#30 = EDGE_CURVE ( 'NONE', #37, #76, #93, .T. ) ;
#31 = FACE_OUTER_BOUND ( 'NONE', #72, .T. ) ;
#32 = VECTOR ( 'NONE', #69, 1000.000000000000000 ) ;
#33 = CLOSED_SHELL ( 'NONE', ( #114, #177, #40, #99, #41, #112 ) ) ;
#34 = ORIENTED_EDGE ( 'NONE', *, *, #30, .T. ) ;
#35 = PLANE ( 'NONE',  #194 ) ;
#36 = DIRECTION ( 'NONE',  ( -1.000000000000000000, 0.0000000000000000000, 0.0000000000000000000 ) ) ;
#37 = VERTEX_POINT ( 'NONE', #143 ) ;
#38 = VERTEX_POINT ( 'NONE', #83 ) ;
#39 = UNCERTAINTY_MEASURE_WITH_UNIT (LENGTH_MEASURE( 1.000000000000000100E-005 ), #181, 'distance_accuracy_value', 'NONE');
#40 = ADVANCED_FACE ( 'NONE', ( #31 ), #35, .F. ) ;
#41 = ADVANCED_FACE ( 'NONE', ( #156 ), #67, .F. ) ;
#42 = ORIENTED_EDGE ( 'NONE', *, *, #160, .F. ) ;
#43 = CARTESIAN_POINT ( 'NONE',  ( -500.0000000000000000, -250.0000000000000000, -7.000000000000000000 ) ) ;
#44 = APPLICATION_PROTOCOL_DEFINITION ( 'draft international standard', 'automotive_design', 1998, #169 ) ;
#45 = SHAPE_DEFINITION_REPRESENTATION ( #200, #189 ) ;
#46 = APPLICATION_PROTOCOL_DEFINITION ( 'draft international standard', 'automotive_design', 1998, #118 ) ;
#47 = DIRECTION ( 'NONE',  ( 0.0000000000000000000, 0.0000000000000000000, -1.000000000000000000 ) ) ;
#48 = LINE ( 'NONE', #135, #180 ) ;
#49 = ORIENTED_EDGE ( 'NONE', *, *, #150, .T. ) ;
#50 = PRESENTATION_STYLE_ASSIGNMENT (( #182 ) ) ;
#51 = EDGE_LOOP ( 'NONE', ( #165, #77, #101, #145 ) ) ;
#52 = AXIS2_PLACEMENT_3D ( 'NONE', #79, #142, #7 ) ;
#53 = CARTESIAN_POINT ( 'NONE',  ( -500.0000000000000000, 250.0000000000000000, 3.000000000000000000 ) ) ;
#54 = EDGE_LOOP ( 'NONE', ( #147, #183, #23, #173 ) ) ;
#55 = CARTESIAN_POINT ( 'NONE',  ( -500.0000000000000000, 250.0000000000000000, -7.000000000000000000 ) ) ;
#56 = EDGE_CURVE ( 'NONE', #38, #37, #172, .T. ) ;
#57 = MECHANICAL_DESIGN_GEOMETRIC_PRESENTATION_REPRESENTATION (  '', ( #17 ), #185 ) ;
#58 = UNCERTAINTY_MEASURE_WITH_UNIT (LENGTH_MEASURE( 1.000000000000000100E-005 ), #86, 'distance_accuracy_value', 'NONE');
#59 = PLANE ( 'NONE',  #52 ) ;
#60 = FILL_AREA_STYLE_COLOUR ( '', #21 ) ;
#61 = DIRECTION ( 'NONE',  ( 0.0000000000000000000, 0.0000000000000000000, 1.000000000000000000 ) ) ;
#62 = AXIS2_PLACEMENT_3D ( 'NONE', #163, #36, #174 ) ;
#63 = LINE ( 'NONE', #115, #113 ) ;
#64 = ORIENTED_EDGE ( 'NONE', *, *, #128, .T. ) ;
#65 = ORIENTED_EDGE ( 'NONE', *, *, #164, .T. ) ;
#66 = CARTESIAN_POINT ( 'NONE',  ( 500.0000000000000000, 250.0000000000000000, -7.000000000000000000 ) ) ;
#67 = PLANE ( 'NONE',  #2 ) ;
#68 = CARTESIAN_POINT ( 'NONE',  ( -500.0000000000000000, -250.0000000000000000, 3.000000000000000000 ) ) ;
#69 = DIRECTION ( 'NONE',  ( 0.0000000000000000000, -1.000000000000000000, -0.0000000000000000000 ) ) ;
#70 = VERTEX_POINT ( 'NONE', #55 ) ;
#71 = VECTOR ( 'NONE', #162, 1000.000000000000000 ) ;
#72 = EDGE_LOOP ( 'NONE', ( #168, #152, #91, #159 ) ) ;
#73 =( NAMED_UNIT ( * ) PLANE_ANGLE_UNIT ( ) SI_UNIT ( $, .RADIAN. ) );
#74 =( NAMED_UNIT ( * ) PLANE_ANGLE_UNIT ( ) SI_UNIT ( $, .RADIAN. ) );
#75 = CARTESIAN_POINT ( 'NONE',  ( -500.0000000000000000, -250.0000000000000000, 3.000000000000000000 ) ) ;
#76 = VERTEX_POINT ( 'NONE', #127 ) ;
#77 = ORIENTED_EDGE ( 'NONE', *, *, #18, .F. ) ;
#78 = LINE ( 'NONE', #75, #109 ) ;
#79 = CARTESIAN_POINT ( 'NONE',  ( -500.0000000000000000, -250.0000000000000000, 3.000000000000000000 ) ) ;
#80 = CARTESIAN_POINT ( 'NONE',  ( 500.0000000000000000, -250.0000000000000000, 3.000000000000000000 ) ) ;
#81 = CARTESIAN_POINT ( 'NONE',  ( 500.0000000000000000, 250.0000000000000000, 3.000000000000000000 ) ) ;
#82 = STYLED_ITEM ( 'NONE', ( #50 ), #189 ) ;
#83 = CARTESIAN_POINT ( 'NONE',  ( -500.0000000000000000, 250.0000000000000000, 3.000000000000000000 ) ) ;
#84 = VECTOR ( 'NONE', #24, 1000.000000000000000 ) ;
#85 = EDGE_CURVE ( 'NONE', #10, #70, #126, .T. ) ;
#86 =( LENGTH_UNIT ( ) NAMED_UNIT ( * ) SI_UNIT ( .MILLI., .METRE. ) );
#87 = DIRECTION ( 'NONE',  ( 1.000000000000000000, 0.0000000000000000000, 0.0000000000000000000 ) ) ;
#88 = VECTOR ( 'NONE', #100, 1000.000000000000000 ) ;
#89 = DIRECTION ( 'NONE',  ( -0.0000000000000000000, 0.0000000000000000000, 1.000000000000000000 ) ) ;
#90 = FACE_OUTER_BOUND ( 'NONE', #51, .T. ) ;
#91 = ORIENTED_EDGE ( 'NONE', *, *, #187, .F. ) ;
#92 = CARTESIAN_POINT ( 'NONE',  ( -500.0000000000000000, -250.0000000000000000, 3.000000000000000000 ) ) ;
#93 = LINE ( 'NONE', #92, #22 ) ;
#94 = DIRECTION ( 'NONE',  ( 0.0000000000000000000, -0.0000000000000000000, -1.000000000000000000 ) ) ;
#95 = VERTEX_POINT ( 'NONE', #80 ) ;
#96 = DIRECTION ( 'NONE',  ( 0.0000000000000000000, 0.0000000000000000000, 1.000000000000000000 ) ) ;
#97 = DIRECTION ( 'NONE',  ( 0.0000000000000000000, -0.0000000000000000000, 1.000000000000000000 ) ) ;
#98 = FACE_OUTER_BOUND ( 'NONE', #16, .T. ) ;
#99 = ADVANCED_FACE ( 'NONE', ( #132 ), #131, .F. ) ;
#100 = DIRECTION ( 'NONE',  ( 1.000000000000000000, 0.0000000000000000000, -0.0000000000000000000 ) ) ;
#101 = ORIENTED_EDGE ( 'NONE', *, *, #150, .F. ) ;
#102 = DIRECTION ( 'NONE',  ( 1.000000000000000000, 0.0000000000000000000, 0.0000000000000000000 ) ) ;
#103 = PRODUCT_CONTEXT ( 'NONE', #118, 'mechanical' ) ;
#104 = VERTEX_POINT ( 'NONE', #4 ) ;
#105 =( GEOMETRIC_REPRESENTATION_CONTEXT ( 3 ) GLOBAL_UNCERTAINTY_ASSIGNED_CONTEXT ( ( #130 ) ) GLOBAL_UNIT_ASSIGNED_CONTEXT ( ( #154, #155, #136 ) ) REPRESENTATION_CONTEXT ( 'NONE', 'WORKASPACE' ) );
#106 = EDGE_LOOP ( 'NONE', ( #198, #42, #34, #49 ) ) ;
#107 = VECTOR ( 'NONE', #199, 1000.000000000000000 ) ;
#108 = CARTESIAN_POINT ( 'NONE',  ( -500.0000000000000000, 250.0000000000000000, 3.000000000000000000 ) ) ;
#109 = VECTOR ( 'NONE', #11, 1000.000000000000000 ) ;
#110 = ORIENTED_EDGE ( 'NONE', *, *, #56, .T. ) ;
#111 = DIRECTION ( 'NONE',  ( -1.000000000000000000, -0.0000000000000000000, -0.0000000000000000000 ) ) ;
#112 = ADVANCED_FACE ( 'NONE', ( #98 ), #59, .T. ) ;
#113 = VECTOR ( 'NONE', #27, 1000.000000000000000 ) ;
#114 = ADVANCED_FACE ( 'NONE', ( #90 ), #129, .F. ) ;
#115 = CARTESIAN_POINT ( 'NONE',  ( 500.0000000000000000, -250.0000000000000000, 3.000000000000000000 ) ) ;
#116 = EDGE_LOOP ( 'NONE', ( #188, #20, #195, #65 ) ) ;
#117 = CARTESIAN_POINT ( 'NONE',  ( -500.0000000000000000, 250.0000000000000000, 3.000000000000000000 ) ) ;
#118 = APPLICATION_CONTEXT ( 'automotive_design' ) ;
#119 = LINE ( 'NONE', #196, #84 ) ;
#120 = ORIENTED_EDGE ( 'NONE', *, *, #160, .T. ) ;
#121 = LINE ( 'NONE', #122, #158 ) ;
#122 = CARTESIAN_POINT ( 'NONE',  ( 500.0000000000000000, -250.0000000000000000, -7.000000000000000000 ) ) ;
#123 = EDGE_CURVE ( 'NONE', #70, #38, #186, .T. ) ;
#124 = CARTESIAN_POINT ( 'NONE',  ( 500.0000000000000000, -250.0000000000000000, -7.000000000000000000 ) ) ;
#125 = DIRECTION ( 'NONE',  ( 0.0000000000000000000, 0.0000000000000000000, -1.000000000000000000 ) ) ;
#126 = LINE ( 'NONE', #149, #71 ) ;
#127 = CARTESIAN_POINT ( 'NONE',  ( -500.0000000000000000, -250.0000000000000000, -7.000000000000000000 ) ) ;
#128 = EDGE_CURVE ( 'NONE', #104, #38, #167, .T. ) ;
#129 = PLANE ( 'NONE',  #139 ) ;
#130 = UNCERTAINTY_MEASURE_WITH_UNIT (LENGTH_MEASURE( 1.000000000000000100E-005 ), #154, 'distance_accuracy_value', 'NONE');
#131 = PLANE ( 'NONE',  #62 ) ;
#132 = FACE_OUTER_BOUND ( 'NONE', #54, .T. ) ;
#133 = CARTESIAN_POINT ( 'NONE',  ( 0.0000000000000000000, 0.0000000000000000000, 0.0000000000000000000 ) ) ;
#134 = AXIS2_PLACEMENT_3D ( 'NONE', #133, #61, #87 ) ;
#135 = CARTESIAN_POINT ( 'NONE',  ( 500.0000000000000000, 250.0000000000000000, 3.000000000000000000 ) ) ;
#136 =( NAMED_UNIT ( * ) SI_UNIT ( $, .STERADIAN. ) SOLID_ANGLE_UNIT ( ) );
#137 = FILL_AREA_STYLE ('',( #184 ) ) ;
#138 = EDGE_CURVE ( 'NONE', #95, #104, #119, .T. ) ;
#139 = AXIS2_PLACEMENT_3D ( 'NONE', #43, #96, #175 ) ;
#140 = VERTEX_POINT ( 'NONE', #124 ) ;
#141 = SURFACE_STYLE_FILL_AREA ( #137 ) ;
#142 = DIRECTION ( 'NONE',  ( 0.0000000000000000000, 0.0000000000000000000, 1.000000000000000000 ) ) ;
#143 = CARTESIAN_POINT ( 'NONE',  ( -500.0000000000000000, -250.0000000000000000, 3.000000000000000000 ) ) ;
#144 = PRODUCT_DEFINITION_FORMATION_WITH_SPECIFIED_SOURCE ( 'ANY', '', #178, .NOT_KNOWN. ) ;
#145 = ORIENTED_EDGE ( 'NONE', *, *, #164, .F. ) ;
#146 = PRODUCT_RELATED_PRODUCT_CATEGORY ( 'part', '', ( #178 ) ) ;
#147 = ORIENTED_EDGE ( 'NONE', *, *, #187, .T. ) ;
#148 = PRODUCT_DEFINITION ( 'UNKNOWN', '', #144, #3 ) ;
#149 = CARTESIAN_POINT ( 'NONE',  ( -500.0000000000000000, 250.0000000000000000, -7.000000000000000000 ) ) ;
#150 = EDGE_CURVE ( 'NONE', #76, #140, #192, .T. ) ;
#151 = SURFACE_SIDE_STYLE ('',( #176 ) ) ;
#152 = ORIENTED_EDGE ( 'NONE', *, *, #128, .F. ) ;
#153 = FILL_AREA_STYLE ('',( #60 ) ) ;
#154 =( LENGTH_UNIT ( ) NAMED_UNIT ( * ) SI_UNIT ( .MILLI., .METRE. ) );
#155 =( NAMED_UNIT ( * ) PLANE_ANGLE_UNIT ( ) SI_UNIT ( $, .RADIAN. ) );
#156 = FACE_OUTER_BOUND ( 'NONE', #106, .T. ) ;
#157 = PRESENTATION_LAYER_ASSIGNMENT (  '', '', ( #17 ) ) ;
#158 = VECTOR ( 'NONE', #191, 1000.000000000000000 ) ;
#159 = ORIENTED_EDGE ( 'NONE', *, *, #85, .T. ) ;
#160 = EDGE_CURVE ( 'NONE', #37, #95, #78, .T. ) ;
#161 = COLOUR_RGB ( '',0.7764705882352941300, 0.7921568627450980000, 0.7803921568627451000 ) ;
#162 = DIRECTION ( 'NONE',  ( -1.000000000000000000, -0.0000000000000000000, 0.0000000000000000000 ) ) ;
#163 = CARTESIAN_POINT ( 'NONE',  ( 500.0000000000000000, -250.0000000000000000, 3.000000000000000000 ) ) ;
#164 = EDGE_CURVE ( 'NONE', #70, #76, #202, .T. ) ;
#165 = ORIENTED_EDGE ( 'NONE', *, *, #85, .F. ) ;
#166 = DIRECTION ( 'NONE',  ( 0.0000000000000000000, -1.000000000000000000, 0.0000000000000000000 ) ) ;
#167 = LINE ( 'NONE', #81, #170 ) ;
#168 = ORIENTED_EDGE ( 'NONE', *, *, #123, .T. ) ;
#169 = APPLICATION_CONTEXT ( 'automotive_design' ) ;
#170 = VECTOR ( 'NONE', #111, 1000.000000000000000 ) ;
#171 = EDGE_CURVE ( 'NONE', #140, #95, #63, .T. ) ;
#172 = LINE ( 'NONE', #108, #32 ) ;
#173 = ORIENTED_EDGE ( 'NONE', *, *, #18, .T. ) ;
#174 = DIRECTION ( 'NONE',  ( 0.0000000000000000000, 0.0000000000000000000, 1.000000000000000000 ) ) ;
#175 = DIRECTION ( 'NONE',  ( 1.000000000000000000, 0.0000000000000000000, -0.0000000000000000000 ) ) ;
#176 = SURFACE_STYLE_FILL_AREA ( #153 ) ;
#177 = ADVANCED_FACE ( 'NONE', ( #6 ), #201, .F. ) ;
#178 = PRODUCT ( '6520225_CNAJF00', '6520225_CNAJF00', '', ( #103 ) ) ;
#179 = MANIFOLD_SOLID_BREP ( 'Importiert1', #33 ) ;
#180 = VECTOR ( 'NONE', #89, 1000.000000000000000 ) ;
#181 =( LENGTH_UNIT ( ) NAMED_UNIT ( * ) SI_UNIT ( .MILLI., .METRE. ) );
#182 = SURFACE_STYLE_USAGE ( .BOTH. , #151 ) ;
#183 = ORIENTED_EDGE ( 'NONE', *, *, #138, .F. ) ;
#184 = FILL_AREA_STYLE_COLOUR ( '', #161 ) ;
#185 =( GEOMETRIC_REPRESENTATION_CONTEXT ( 3 ) GLOBAL_UNCERTAINTY_ASSIGNED_CONTEXT ( ( #39 ) ) GLOBAL_UNIT_ASSIGNED_CONTEXT ( ( #181, #74, #12 ) ) REPRESENTATION_CONTEXT ( 'NONE', 'WORKASPACE' ) );
#186 = LINE ( 'NONE', #53, #1 ) ;
#187 = EDGE_CURVE ( 'NONE', #10, #104, #48, .T. ) ;
#188 = ORIENTED_EDGE ( 'NONE', *, *, #30, .F. ) ;
#189 = ADVANCED_BREP_SHAPE_REPRESENTATION ( '6520225_CNAJF00', ( #179, #134 ), #19 ) ;
#190 = MECHANICAL_DESIGN_GEOMETRIC_PRESENTATION_REPRESENTATION (  '', ( #82 ), #105 ) ;
#191 = DIRECTION ( 'NONE',  ( -0.0000000000000000000, 1.000000000000000000, 0.0000000000000000000 ) ) ;
#192 = LINE ( 'NONE', #29, #88 ) ;
#193 = CARTESIAN_POINT ( 'NONE',  ( 500.0000000000000000, 250.0000000000000000, 3.000000000000000000 ) ) ;
#194 = AXIS2_PLACEMENT_3D ( 'NONE', #193, #166, #94 ) ;
#195 = ORIENTED_EDGE ( 'NONE', *, *, #123, .F. ) ;
#196 = CARTESIAN_POINT ( 'NONE',  ( 500.0000000000000000, -250.0000000000000000, 3.000000000000000000 ) ) ;
#197 = ORIENTED_EDGE ( 'NONE', *, *, #138, .T. ) ;
#198 = ORIENTED_EDGE ( 'NONE', *, *, #171, .T. ) ;
#199 = DIRECTION ( 'NONE',  ( 0.0000000000000000000, -1.000000000000000000, -0.0000000000000000000 ) ) ;
#200 = PRODUCT_DEFINITION_SHAPE ( 'NONE', 'NONE',  #148 ) ;
#201 = PLANE ( 'NONE',  #28 ) ;
#202 = LINE ( 'NONE', #13, #107 ) ;
ENDSEC;
END-ISO-10303-21;
