ISO-10303-21;
HEADER;
FILE_DESCRIPTION (( 'STEP AP214' ),
    '1' );
FILE_NAME ('6520216',
    '2019-02-01T12:48:21',
    ( '' ),
    ('JUGARD+KÜNSTNER GmbH'),
    'SwSTEP 2.0',
    'SolidWorks 2017',
    '' );
FILE_SCHEMA (( 'AUTOMOTIVE_DESIGN' ));
ENDSEC;

DATA;
#1 = LINE ( 'NONE', #198, #17 ) ;
#2 = DIRECTION ( 'NONE',  ( -1.000000000000000000, 0.0000000000000000000, 0.0000000000000000000 ) ) ;
#3 = DIRECTION ( 'NONE',  ( 0.0000000000000000000, -1.000000000000000000, -0.0000000000000000000 ) ) ;
#4 = ORIENTED_EDGE ( 'NONE', *, *, #41, .F. ) ;
#5 = ORIENTED_EDGE ( 'NONE', *, *, #175, .T. ) ;
#6 = AXIS2_PLACEMENT_3D ( 'NONE', #82, #146, #132 ) ;
#7 = ORIENTED_EDGE ( 'NONE', *, *, #175, .F. ) ;
#8 = CARTESIAN_POINT ( 'NONE',  ( 500.0000000000000000, 250.0000000000000000, 8.000000000000000000 ) ) ;
#9 = EDGE_LOOP ( 'NONE', ( #33, #181, #68, #108 ) ) ;
#10 = CARTESIAN_POINT ( 'NONE',  ( 500.0000000000000000, 250.0000000000000000, 8.000000000000000000 ) ) ;
#11 = DIRECTION ( 'NONE',  ( 0.0000000000000000000, -0.0000000000000000000, 1.000000000000000000 ) ) ;
#12 = ORIENTED_EDGE ( 'NONE', *, *, #139, .T. ) ;
#13 = PRODUCT_CONTEXT ( 'NONE', #87, 'mechanical' ) ;
#14 = SURFACE_STYLE_USAGE ( .BOTH. , #154 ) ;
#15 = VERTEX_POINT ( 'NONE', #63 ) ;
#16 = EDGE_CURVE ( 'NONE', #129, #24, #126, .T. ) ;
#17 = VECTOR ( 'NONE', #69, 1000.000000000000000 ) ;
#18 = SHAPE_DEFINITION_REPRESENTATION ( #199, #177 ) ;
#19 = CLOSED_SHELL ( 'NONE', ( #145, #116, #121, #185, #97, #149 ) ) ;
#20 =( GEOMETRIC_REPRESENTATION_CONTEXT ( 3 ) GLOBAL_UNCERTAINTY_ASSIGNED_CONTEXT ( ( #195 ) ) GLOBAL_UNIT_ASSIGNED_CONTEXT ( ( #58, #202, #89 ) ) REPRESENTATION_CONTEXT ( 'NONE', 'WORKASPACE' ) );
#21 =( LENGTH_UNIT ( ) NAMED_UNIT ( * ) SI_UNIT ( .MILLI., .METRE. ) );
#22 = MANIFOLD_SOLID_BREP ( 'Importiert1', #19 ) ;
#23 = DIRECTION ( 'NONE',  ( -1.000000000000000000, -0.0000000000000000000, -0.0000000000000000000 ) ) ;
#24 = VERTEX_POINT ( 'NONE', #80 ) ;
#25 = DIRECTION ( 'NONE',  ( 1.000000000000000000, 0.0000000000000000000, -0.0000000000000000000 ) ) ;
#26 = PLANE ( 'NONE',  #6 ) ;
#27 = PRODUCT_DEFINITION_FORMATION_WITH_SPECIFIED_SOURCE ( 'ANY', '', #171, .NOT_KNOWN. ) ;
#28 = VECTOR ( 'NONE', #200, 1000.000000000000000 ) ;
#29 = DIRECTION ( 'NONE',  ( 0.0000000000000000000, 0.0000000000000000000, 1.000000000000000000 ) ) ;
#30 = DIRECTION ( 'NONE',  ( 0.0000000000000000000, 0.0000000000000000000, 1.000000000000000000 ) ) ;
#31 = CARTESIAN_POINT ( 'NONE',  ( -500.0000000000000000, 250.0000000000000000, 8.000000000000000000 ) ) ;
#32 = LINE ( 'NONE', #151, #143 ) ;
#33 = ORIENTED_EDGE ( 'NONE', *, *, #158, .F. ) ;
#34 = EDGE_CURVE ( 'NONE', #124, #120, #74, .T. ) ;
#35 = SURFACE_STYLE_FILL_AREA ( #189 ) ;
#36 = VECTOR ( 'NONE', #54, 1000.000000000000000 ) ;
#37 = ORIENTED_EDGE ( 'NONE', *, *, #83, .F. ) ;
#38 = LINE ( 'NONE', #102, #49 ) ;
#39 = PLANE ( 'NONE',  #109 ) ;
#40 = DIRECTION ( 'NONE',  ( -0.0000000000000000000, 1.000000000000000000, 0.0000000000000000000 ) ) ;
#41 = EDGE_CURVE ( 'NONE', #134, #124, #115, .T. ) ;
#42 = APPLICATION_CONTEXT ( 'automotive_design' ) ;
#43 = VECTOR ( 'NONE', #3, 1000.000000000000000 ) ;
#44 = ORIENTED_EDGE ( 'NONE', *, *, #83, .T. ) ;
#45 = APPLICATION_PROTOCOL_DEFINITION ( 'draft international standard', 'automotive_design', 1998, #87 ) ;
#46 = FILL_AREA_STYLE_COLOUR ( '', #98 ) ;
#47 = EDGE_CURVE ( 'NONE', #120, #15, #161, .T. ) ;
#48 = ORIENTED_EDGE ( 'NONE', *, *, #47, .T. ) ;
#49 = VECTOR ( 'NONE', #178, 1000.000000000000000 ) ;
#50 = VERTEX_POINT ( 'NONE', #164 ) ;
#51 = ORIENTED_EDGE ( 'NONE', *, *, #16, .F. ) ;
#52 = CARTESIAN_POINT ( 'NONE',  ( -500.0000000000000000, 250.0000000000000000, 8.000000000000000000 ) ) ;
#53 = ORIENTED_EDGE ( 'NONE', *, *, #139, .F. ) ;
#54 = DIRECTION ( 'NONE',  ( 0.0000000000000000000, 0.0000000000000000000, -1.000000000000000000 ) ) ;
#55 = CARTESIAN_POINT ( 'NONE',  ( -500.0000000000000000, -250.0000000000000000, 8.000000000000000000 ) ) ;
#56 = PRESENTATION_STYLE_ASSIGNMENT (( #14 ) ) ;
#57 = CARTESIAN_POINT ( 'NONE',  ( -500.0000000000000000, -250.0000000000000000, -7.000000000000000000 ) ) ;
#58 =( LENGTH_UNIT ( ) NAMED_UNIT ( * ) SI_UNIT ( .MILLI., .METRE. ) );
#59 = VECTOR ( 'NONE', #25, 1000.000000000000000 ) ;
#60 = FACE_OUTER_BOUND ( 'NONE', #155, .T. ) ;
#61 = AXIS2_PLACEMENT_3D ( 'NONE', #131, #169, #104 ) ;
#62 = ORIENTED_EDGE ( 'NONE', *, *, #152, .T. ) ;
#63 = CARTESIAN_POINT ( 'NONE',  ( 500.0000000000000000, 250.0000000000000000, -6.999999999999999100 ) ) ;
#64 = FILL_AREA_STYLE ('',( #110 ) ) ;
#65 = VECTOR ( 'NONE', #23, 1000.000000000000000 ) ;
#66 = CARTESIAN_POINT ( 'NONE',  ( 500.0000000000000000, -250.0000000000000000, 8.000000000000000000 ) ) ;
#67 = DIRECTION ( 'NONE',  ( 0.0000000000000000000, -1.000000000000000000, 0.0000000000000000000 ) ) ;
#68 = ORIENTED_EDGE ( 'NONE', *, *, #34, .F. ) ;
#69 = DIRECTION ( 'NONE',  ( -0.0000000000000000000, 0.0000000000000000000, 1.000000000000000000 ) ) ;
#70 =( NAMED_UNIT ( * ) PLANE_ANGLE_UNIT ( ) SI_UNIT ( $, .RADIAN. ) );
#71 = STYLED_ITEM ( 'NONE', ( #56 ), #177 ) ;
#72 = DIRECTION ( 'NONE',  ( 0.0000000000000000000, 0.0000000000000000000, 1.000000000000000000 ) ) ;
#73 = DIRECTION ( 'NONE',  ( 0.0000000000000000000, -1.000000000000000000, -0.0000000000000000000 ) ) ;
#74 = LINE ( 'NONE', #119, #59 ) ;
#75 = PRESENTATION_LAYER_ASSIGNMENT (  '', '', ( #79 ) ) ;
#76 = VERTEX_POINT ( 'NONE', #117 ) ;
#77 = EDGE_CURVE ( 'NONE', #76, #50, #193, .T. ) ;
#78 = VECTOR ( 'NONE', #40, 1000.000000000000000 ) ;
#79 = STYLED_ITEM ( 'NONE', ( #138 ), #22 ) ;
#80 = CARTESIAN_POINT ( 'NONE',  ( 500.0000000000000000, 250.0000000000000000, 8.000000000000000000 ) ) ;
#81 = VECTOR ( 'NONE', #29, 1000.000000000000000 ) ;
#82 = CARTESIAN_POINT ( 'NONE',  ( -500.0000000000000000, 250.0000000000000000, 8.000000000000000000 ) ) ;
#83 = EDGE_CURVE ( 'NONE', #15, #24, #1, .T. ) ;
#84 = PLANE ( 'NONE',  #166 ) ;
#85 = DIRECTION ( 'NONE',  ( 0.0000000000000000000, -0.0000000000000000000, -1.000000000000000000 ) ) ;
#86 = SURFACE_STYLE_FILL_AREA ( #64 ) ;
#87 = APPLICATION_CONTEXT ( 'automotive_design' ) ;
#88 =( GEOMETRIC_REPRESENTATION_CONTEXT ( 3 ) GLOBAL_UNCERTAINTY_ASSIGNED_CONTEXT ( ( #94 ) ) GLOBAL_UNIT_ASSIGNED_CONTEXT ( ( #21, #70, #147 ) ) REPRESENTATION_CONTEXT ( 'NONE', 'WORKASPACE' ) );
#89 =( NAMED_UNIT ( * ) SI_UNIT ( $, .STERADIAN. ) SOLID_ANGLE_UNIT ( ) );
#90 = ORIENTED_EDGE ( 'NONE', *, *, #41, .T. ) ;
#91 = CARTESIAN_POINT ( 'NONE',  ( 500.0000000000000000, -250.0000000000000000, 8.000000000000000000 ) ) ;
#92 = ORIENTED_EDGE ( 'NONE', *, *, #34, .T. ) ;
#93 = PRODUCT_DEFINITION ( 'UNKNOWN', '', #27, #176 ) ;
#94 = UNCERTAINTY_MEASURE_WITH_UNIT (LENGTH_MEASURE( 1.000000000000000100E-005 ), #21, 'distance_accuracy_value', 'NONE');
#95 = ORIENTED_EDGE ( 'NONE', *, *, #180, .T. ) ;
#96 = LINE ( 'NONE', #8, #65 ) ;
#97 = ADVANCED_FACE ( 'NONE', ( #148 ), #182, .F. ) ;
#98 = COLOUR_RGB ( '',0.7529411764705882200, 0.7529411764705882200, 0.7529411764705882200 ) ;
#99 = EDGE_LOOP ( 'NONE', ( #159, #12, #95, #128 ) ) ;
#100 = CARTESIAN_POINT ( 'NONE',  ( -500.0000000000000000, -250.0000000000000000, -6.999999999999999100 ) ) ;
#101 = PLANE ( 'NONE',  #61 ) ;
#102 = CARTESIAN_POINT ( 'NONE',  ( -500.0000000000000000, -250.0000000000000000, 8.000000000000000000 ) ) ;
#103 = LINE ( 'NONE', #31, #137 ) ;
#104 = DIRECTION ( 'NONE',  ( 1.000000000000000000, 0.0000000000000000000, -0.0000000000000000000 ) ) ;
#105 = EDGE_LOOP ( 'NONE', ( #5, #172, #90, #92 ) ) ;
#106 = FACE_OUTER_BOUND ( 'NONE', #196, .T. ) ;
#107 = AXIS2_PLACEMENT_3D ( 'NONE', #170, #30, #156 ) ;
#108 = ORIENTED_EDGE ( 'NONE', *, *, #152, .F. ) ;
#109 = AXIS2_PLACEMENT_3D ( 'NONE', #142, #165, #197 ) ;
#110 = FILL_AREA_STYLE_COLOUR ( '', #140 ) ;
#111 = ORIENTED_EDGE ( 'NONE', *, *, #77, .F. ) ;
#112 = SURFACE_STYLE_USAGE ( .BOTH. , #192 ) ;
#113 = CARTESIAN_POINT ( 'NONE',  ( 500.0000000000000000, -250.0000000000000000, 8.000000000000000000 ) ) ;
#114 = FACE_OUTER_BOUND ( 'NONE', #99, .T. ) ;
#115 = LINE ( 'NONE', #130, #36 ) ;
#116 = ADVANCED_FACE ( 'NONE', ( #106 ), #26, .F. ) ;
#117 = CARTESIAN_POINT ( 'NONE',  ( -500.0000000000000000, 250.0000000000000000, -6.999999999999999100 ) ) ;
#118 = AXIS2_PLACEMENT_3D ( 'NONE', #91, #2, #72 ) ;
#119 = CARTESIAN_POINT ( 'NONE',  ( -500.0000000000000000, -250.0000000000000000, -7.000000000000000000 ) ) ;
#120 = VERTEX_POINT ( 'NONE', #179 ) ;
#121 = ADVANCED_FACE ( 'NONE', ( #60 ), #84, .F. ) ;
#122 = PRODUCT_RELATED_PRODUCT_CATEGORY ( 'part', '', ( #171 ) ) ;
#123 = APPLICATION_PROTOCOL_DEFINITION ( 'draft international standard', 'automotive_design', 1998, #42 ) ;
#124 = VERTEX_POINT ( 'NONE', #100 ) ;
#125 = DIRECTION ( 'NONE',  ( -1.000000000000000000, -0.0000000000000000000, 0.0000000000000000000 ) ) ;
#126 = LINE ( 'NONE', #66, #191 ) ;
#127 = EDGE_CURVE ( 'NONE', #134, #129, #38, .T. ) ;
#128 = ORIENTED_EDGE ( 'NONE', *, *, #127, .T. ) ;
#129 = VERTEX_POINT ( 'NONE', #113 ) ;
#130 = CARTESIAN_POINT ( 'NONE',  ( -500.0000000000000000, -250.0000000000000000, 8.000000000000000000 ) ) ;
#131 = CARTESIAN_POINT ( 'NONE',  ( -500.0000000000000000, -250.0000000000000000, 8.000000000000000000 ) ) ;
#132 = DIRECTION ( 'NONE',  ( 0.0000000000000000000, 0.0000000000000000000, -1.000000000000000000 ) ) ;
#133 = FACE_OUTER_BOUND ( 'NONE', #162, .T. ) ;
#134 = VERTEX_POINT ( 'NONE', #194 ) ;
#135 =( GEOMETRIC_REPRESENTATION_CONTEXT ( 3 ) GLOBAL_UNCERTAINTY_ASSIGNED_CONTEXT ( ( #157 ) ) GLOBAL_UNIT_ASSIGNED_CONTEXT ( ( #184, #136, #187 ) ) REPRESENTATION_CONTEXT ( 'NONE', 'WORKASPACE' ) );
#136 =( NAMED_UNIT ( * ) PLANE_ANGLE_UNIT ( ) SI_UNIT ( $, .RADIAN. ) );
#137 = VECTOR ( 'NONE', #73, 1000.000000000000000 ) ;
#138 = PRESENTATION_STYLE_ASSIGNMENT (( #112 ) ) ;
#139 = EDGE_CURVE ( 'NONE', #24, #50, #96, .T. ) ;
#140 = COLOUR_RGB ( '',0.3411764705882353000, 0.3647058823529411600, 0.3803921568627450800 ) ;
#141 = DIRECTION ( 'NONE',  ( 0.0000000000000000000, 1.000000000000000000, -0.0000000000000000000 ) ) ;
#142 = CARTESIAN_POINT ( 'NONE',  ( -500.0000000000000000, -250.0000000000000000, -7.000000000000000000 ) ) ;
#143 = VECTOR ( 'NONE', #125, 1000.000000000000000 ) ;
#144 = PRESENTATION_LAYER_ASSIGNMENT (  '', '', ( #71 ) ) ;
#145 = ADVANCED_FACE ( 'NONE', ( #160 ), #39, .F. ) ;
#146 = DIRECTION ( 'NONE',  ( 1.000000000000000000, 0.0000000000000000000, 0.0000000000000000000 ) ) ;
#147 =( NAMED_UNIT ( * ) SI_UNIT ( $, .STERADIAN. ) SOLID_ANGLE_UNIT ( ) );
#148 = FACE_OUTER_BOUND ( 'NONE', #105, .T. ) ;
#149 = ADVANCED_FACE ( 'NONE', ( #114 ), #101, .T. ) ;
#150 = MECHANICAL_DESIGN_GEOMETRIC_PRESENTATION_REPRESENTATION (  '', ( #79 ), #88 ) ;
#151 = CARTESIAN_POINT ( 'NONE',  ( -500.0000000000000000, 250.0000000000000000, -7.000000000000000000 ) ) ;
#152 = EDGE_CURVE ( 'NONE', #76, #124, #173, .T. ) ;
#153 = CARTESIAN_POINT ( 'NONE',  ( 500.0000000000000000, -250.0000000000000000, 8.000000000000000000 ) ) ;
#154 = SURFACE_SIDE_STYLE ('',( #35 ) ) ;
#155 = EDGE_LOOP ( 'NONE', ( #174, #53, #37, #163 ) ) ;
#156 = DIRECTION ( 'NONE',  ( 1.000000000000000000, 0.0000000000000000000, 0.0000000000000000000 ) ) ;
#157 = UNCERTAINTY_MEASURE_WITH_UNIT (LENGTH_MEASURE( 1.000000000000000100E-005 ), #184, 'distance_accuracy_value', 'NONE');
#158 = EDGE_CURVE ( 'NONE', #15, #76, #32, .T. ) ;
#159 = ORIENTED_EDGE ( 'NONE', *, *, #16, .T. ) ;
#160 = FACE_OUTER_BOUND ( 'NONE', #9, .T. ) ;
#161 = LINE ( 'NONE', #183, #78 ) ;
#162 = EDGE_LOOP ( 'NONE', ( #44, #51, #7, #48 ) ) ;
#163 = ORIENTED_EDGE ( 'NONE', *, *, #158, .T. ) ;
#164 = CARTESIAN_POINT ( 'NONE',  ( -500.0000000000000000, 250.0000000000000000, 8.000000000000000000 ) ) ;
#165 = DIRECTION ( 'NONE',  ( 0.0000000000000000000, 0.0000000000000000000, 1.000000000000000000 ) ) ;
#166 = AXIS2_PLACEMENT_3D ( 'NONE', #10, #67, #85 ) ;
#167 = DIRECTION ( 'NONE',  ( 0.0000000000000000000, 1.000000000000000000, 0.0000000000000000000 ) ) ;
#168 = PLANE ( 'NONE',  #118 ) ;
#169 = DIRECTION ( 'NONE',  ( 0.0000000000000000000, 0.0000000000000000000, 1.000000000000000000 ) ) ;
#170 = CARTESIAN_POINT ( 'NONE',  ( 0.0000000000000000000, 0.0000000000000000000, 0.0000000000000000000 ) ) ;
#171 = PRODUCT ( '6520216_CNAJF00', '6520216_CNAJF00', '', ( #13 ) ) ;
#172 = ORIENTED_EDGE ( 'NONE', *, *, #127, .F. ) ;
#173 = LINE ( 'NONE', #57, #43 ) ;
#174 = ORIENTED_EDGE ( 'NONE', *, *, #77, .T. ) ;
#175 = EDGE_CURVE ( 'NONE', #120, #129, #190, .T. ) ;
#176 = PRODUCT_DEFINITION_CONTEXT ( 'detailed design', #42, 'design' ) ;
#177 = ADVANCED_BREP_SHAPE_REPRESENTATION ( '6520216_CNAJF00', ( #22, #107 ), #135 ) ;
#178 = DIRECTION ( 'NONE',  ( 1.000000000000000000, 0.0000000000000000000, -0.0000000000000000000 ) ) ;
#179 = CARTESIAN_POINT ( 'NONE',  ( 500.0000000000000000, -250.0000000000000000, -6.999999999999999100 ) ) ;
#180 = EDGE_CURVE ( 'NONE', #50, #134, #103, .T. ) ;
#181 = ORIENTED_EDGE ( 'NONE', *, *, #47, .F. ) ;
#182 = PLANE ( 'NONE',  #188 ) ;
#183 = CARTESIAN_POINT ( 'NONE',  ( 500.0000000000000000, -250.0000000000000000, -7.000000000000000000 ) ) ;
#184 =( LENGTH_UNIT ( ) NAMED_UNIT ( * ) SI_UNIT ( .MILLI., .METRE. ) );
#185 = ADVANCED_FACE ( 'NONE', ( #133 ), #168, .F. ) ;
#186 = MECHANICAL_DESIGN_GEOMETRIC_PRESENTATION_REPRESENTATION (  '', ( #71 ), #20 ) ;
#187 =( NAMED_UNIT ( * ) SI_UNIT ( $, .STERADIAN. ) SOLID_ANGLE_UNIT ( ) );
#188 = AXIS2_PLACEMENT_3D ( 'NONE', #55, #167, #11 ) ;
#189 = FILL_AREA_STYLE ('',( #46 ) ) ;
#190 = LINE ( 'NONE', #153, #81 ) ;
#191 = VECTOR ( 'NONE', #141, 1000.000000000000000 ) ;
#192 = SURFACE_SIDE_STYLE ('',( #86 ) ) ;
#193 = LINE ( 'NONE', #52, #28 ) ;
#194 = CARTESIAN_POINT ( 'NONE',  ( -500.0000000000000000, -250.0000000000000000, 8.000000000000000000 ) ) ;
#195 = UNCERTAINTY_MEASURE_WITH_UNIT (LENGTH_MEASURE( 1.000000000000000100E-005 ), #58, 'distance_accuracy_value', 'NONE');
#196 = EDGE_LOOP ( 'NONE', ( #4, #201, #111, #62 ) ) ;
#197 = DIRECTION ( 'NONE',  ( 1.000000000000000000, 0.0000000000000000000, -0.0000000000000000000 ) ) ;
#198 = CARTESIAN_POINT ( 'NONE',  ( 500.0000000000000000, 250.0000000000000000, 8.000000000000000000 ) ) ;
#199 = PRODUCT_DEFINITION_SHAPE ( 'NONE', 'NONE',  #93 ) ;
#200 = DIRECTION ( 'NONE',  ( -0.0000000000000000000, -0.0000000000000000000, 1.000000000000000000 ) ) ;
#201 = ORIENTED_EDGE ( 'NONE', *, *, #180, .F. ) ;
#202 =( NAMED_UNIT ( * ) PLANE_ANGLE_UNIT ( ) SI_UNIT ( $, .RADIAN. ) );
ENDSEC;
END-ISO-10303-21;
