ISO-10303-21;
HEADER;
FILE_DESCRIPTION (( 'STEP AP214' ),
    '1' );
FILE_NAME ('6520209',
    '2019-02-01T12:48:23',
    ( '' ),
    ('JUGARD+KÜNSTNER GmbH'),
    'SwSTEP 2.0',
    'SolidWorks 2017',
    '' );
FILE_SCHEMA (( 'AUTOMOTIVE_DESIGN' ));
ENDSEC;

DATA;
#1 = APPLICATION_PROTOCOL_DEFINITION ( 'draft international standard', 'automotive_design', 1998, #176 ) ;
#2 = EDGE_CURVE ( 'NONE', #132, #153, #174, .T. ) ;
#3 =( NAMED_UNIT ( * ) PLANE_ANGLE_UNIT ( ) SI_UNIT ( $, .RADIAN. ) );
#4 = PRESENTATION_STYLE_ASSIGNMENT (( #40 ) ) ;
#5 = VECTOR ( 'NONE', #114, 1000.000000000000000 ) ;
#6 = ORIENTED_EDGE ( 'NONE', *, *, #43, .F. ) ;
#7 = VECTOR ( 'NONE', #134, 1000.000000000000000 ) ;
#8 = EDGE_CURVE ( 'NONE', #132, #65, #193, .T. ) ;
#9 = VECTOR ( 'NONE', #133, 1000.000000000000000 ) ;
#10 = CARTESIAN_POINT ( 'NONE',  ( -500.0000000000000000, -250.0000000000000000, -1.000000000000000000 ) ) ;
#11 = PRODUCT_RELATED_PRODUCT_CATEGORY ( 'part', '', ( #178 ) ) ;
#12 = DIRECTION ( 'NONE',  ( 1.000000000000000000, 0.0000000000000000000, 0.0000000000000000000 ) ) ;
#13 = UNCERTAINTY_MEASURE_WITH_UNIT (LENGTH_MEASURE( 1.000000000000000100E-005 ), #175, 'distance_accuracy_value', 'NONE');
#14 = CARTESIAN_POINT ( 'NONE',  ( -500.0000000000000000, -250.0000000000000000, -1.000000000000000000 ) ) ;
#15 = STYLED_ITEM ( 'NONE', ( #4 ), #163 ) ;
#16 = VECTOR ( 'NONE', #201, 1000.000000000000000 ) ;
#17 = EDGE_CURVE ( 'NONE', #65, #48, #180, .T. ) ;
#18 = EDGE_LOOP ( 'NONE', ( #6, #126, #62, #144 ) ) ;
#19 = ORIENTED_EDGE ( 'NONE', *, *, #77, .F. ) ;
#20 = CARTESIAN_POINT ( 'NONE',  ( 500.0000000000000000, -250.0000000000000000, -7.000000000000000000 ) ) ;
#21 = ORIENTED_EDGE ( 'NONE', *, *, #2, .T. ) ;
#22 = CARTESIAN_POINT ( 'NONE',  ( 500.0000000000000000, -250.0000000000000000, -1.000000000000000000 ) ) ;
#23 = SURFACE_STYLE_FILL_AREA ( #28 ) ;
#24 = ORIENTED_EDGE ( 'NONE', *, *, #25, .F. ) ;
#25 = EDGE_CURVE ( 'NONE', #48, #86, #161, .T. ) ;
#26 = DIRECTION ( 'NONE',  ( 0.0000000000000000000, -0.0000000000000000000, -1.000000000000000000 ) ) ;
#27 = LINE ( 'NONE', #179, #67 ) ;
#28 = FILL_AREA_STYLE ('',( #139 ) ) ;
#29 = EDGE_LOOP ( 'NONE', ( #97, #104, #60, #107 ) ) ;
#30 = EDGE_CURVE ( 'NONE', #189, #56, #112, .T. ) ;
#31 = LINE ( 'NONE', #113, #9 ) ;
#32 = DIRECTION ( 'NONE',  ( 0.0000000000000000000, 1.000000000000000000, 0.0000000000000000000 ) ) ;
#33 = AXIS2_PLACEMENT_3D ( 'NONE', #14, #130, #53 ) ;
#34 = FACE_OUTER_BOUND ( 'NONE', #51, .T. ) ;
#35 = SURFACE_STYLE_USAGE ( .BOTH. , #57 ) ;
#36 = CARTESIAN_POINT ( 'NONE',  ( -500.0000000000000000, -250.0000000000000000, -1.000000000000000000 ) ) ;
#37 = FILL_AREA_STYLE_COLOUR ( '', #82 ) ;
#38 = DIRECTION ( 'NONE',  ( 0.0000000000000000000, 0.0000000000000000000, 1.000000000000000000 ) ) ;
#39 = AXIS2_PLACEMENT_3D ( 'NONE', #10, #32, #165 ) ;
#40 = SURFACE_STYLE_USAGE ( .BOTH. , #158 ) ;
#41 = CARTESIAN_POINT ( 'NONE',  ( 0.0000000000000000000, 0.0000000000000000000, 0.0000000000000000000 ) ) ;
#42 = CARTESIAN_POINT ( 'NONE',  ( 500.0000000000000000, -250.0000000000000000, -1.000000000000000000 ) ) ;
#43 = EDGE_CURVE ( 'NONE', #189, #65, #27, .T. ) ;
#44 =( LENGTH_UNIT ( ) NAMED_UNIT ( * ) SI_UNIT ( .MILLI., .METRE. ) );
#45 = ADVANCED_FACE ( 'NONE', ( #191 ), #66, .F. ) ;
#46 = ADVANCED_FACE ( 'NONE', ( #197 ), #128, .F. ) ;
#47 = VECTOR ( 'NONE', #181, 1000.000000000000000 ) ;
#48 = VERTEX_POINT ( 'NONE', #20 ) ;
#49 = DIRECTION ( 'NONE',  ( 0.0000000000000000000, 0.0000000000000000000, -1.000000000000000000 ) ) ;
#50 = VECTOR ( 'NONE', #182, 1000.000000000000000 ) ;
#51 = EDGE_LOOP ( 'NONE', ( #143, #68, #71, #115 ) ) ;
#52 = CARTESIAN_POINT ( 'NONE',  ( -500.0000000000000000, -250.0000000000000000, -7.000000000000000000 ) ) ;
#53 = DIRECTION ( 'NONE',  ( 1.000000000000000000, 0.0000000000000000000, -0.0000000000000000000 ) ) ;
#54 = SHAPE_DEFINITION_REPRESENTATION ( #177, #163 ) ;
#55 =( NAMED_UNIT ( * ) PLANE_ANGLE_UNIT ( ) SI_UNIT ( $, .RADIAN. ) );
#56 = VERTEX_POINT ( 'NONE', #64 ) ;
#57 = SURFACE_SIDE_STYLE ('',( #73 ) ) ;
#58 = APPLICATION_PROTOCOL_DEFINITION ( 'draft international standard', 'automotive_design', 1998, #154 ) ;
#59 = PLANE ( 'NONE',  #117 ) ;
#60 = ORIENTED_EDGE ( 'NONE', *, *, #43, .T. ) ;
#61 = CARTESIAN_POINT ( 'NONE',  ( -500.0000000000000000, 250.0000000000000000, -1.000000000000000000 ) ) ;
#62 = ORIENTED_EDGE ( 'NONE', *, *, #2, .F. ) ;
#63 = DIRECTION ( 'NONE',  ( 0.0000000000000000000, 0.0000000000000000000, 1.000000000000000000 ) ) ;
#64 = CARTESIAN_POINT ( 'NONE',  ( 500.0000000000000000, -250.0000000000000000, -1.000000000000000000 ) ) ;
#65 = VERTEX_POINT ( 'NONE', #94 ) ;
#66 = PLANE ( 'NONE',  #74 ) ;
#67 = VECTOR ( 'NONE', #49, 1000.000000000000000 ) ;
#68 = ORIENTED_EDGE ( 'NONE', *, *, #84, .F. ) ;
#69 = CARTESIAN_POINT ( 'NONE',  ( 500.0000000000000000, 250.0000000000000000, -1.000000000000000000 ) ) ;
#70 = PLANE ( 'NONE',  #90 ) ;
#71 = ORIENTED_EDGE ( 'NONE', *, *, #152, .F. ) ;
#72 = PRESENTATION_LAYER_ASSIGNMENT (  '', '', ( #15 ) ) ;
#73 = SURFACE_STYLE_FILL_AREA ( #184 ) ;
#74 = AXIS2_PLACEMENT_3D ( 'NONE', #164, #63, #79 ) ;
#75 = ADVANCED_FACE ( 'NONE', ( #103 ), #70, .F. ) ;
#76 = LINE ( 'NONE', #168, #5 ) ;
#77 = EDGE_CURVE ( 'NONE', #136, #153, #156, .T. ) ;
#78 = PRESENTATION_STYLE_ASSIGNMENT (( #35 ) ) ;
#79 = DIRECTION ( 'NONE',  ( 1.000000000000000000, 0.0000000000000000000, -0.0000000000000000000 ) ) ;
#80 = MECHANICAL_DESIGN_GEOMETRIC_PRESENTATION_REPRESENTATION (  '', ( #15 ), #100 ) ;
#81 = FACE_OUTER_BOUND ( 'NONE', #183, .T. ) ;
#82 = COLOUR_RGB ( '',0.3411764705882353000, 0.3647058823529411600, 0.3803921568627450800 ) ;
#83 = CARTESIAN_POINT ( 'NONE',  ( 500.0000000000000000, 250.0000000000000000, -1.000000000000000000 ) ) ;
#84 = EDGE_CURVE ( 'NONE', #56, #136, #31, .T. ) ;
#85 = PLANE ( 'NONE',  #162 ) ;
#86 = VERTEX_POINT ( 'NONE', #129 ) ;
#87 = CARTESIAN_POINT ( 'NONE',  ( 500.0000000000000000, 250.0000000000000000, -1.000000000000000000 ) ) ;
#88 =( NAMED_UNIT ( * ) PLANE_ANGLE_UNIT ( ) SI_UNIT ( $, .RADIAN. ) );
#89 = MANIFOLD_SOLID_BREP ( 'Importiert1', #150 ) ;
#90 = AXIS2_PLACEMENT_3D ( 'NONE', #198, #12, #131 ) ;
#91 = VECTOR ( 'NONE', #38, 1000.000000000000000 ) ;
#92 = ORIENTED_EDGE ( 'NONE', *, *, #167, .T. ) ;
#93 = CARTESIAN_POINT ( 'NONE',  ( 500.0000000000000000, -250.0000000000000000, -7.000000000000000000 ) ) ;
#94 = CARTESIAN_POINT ( 'NONE',  ( -500.0000000000000000, -250.0000000000000000, -7.000000000000000000 ) ) ;
#95 = ORIENTED_EDGE ( 'NONE', *, *, #160, .F. ) ;
#96 = STYLED_ITEM ( 'NONE', ( #78 ), #89 ) ;
#97 = ORIENTED_EDGE ( 'NONE', *, *, #152, .T. ) ;
#98 = FACE_OUTER_BOUND ( 'NONE', #159, .T. ) ;
#99 = ORIENTED_EDGE ( 'NONE', *, *, #8, .F. ) ;
#100 =( GEOMETRIC_REPRESENTATION_CONTEXT ( 3 ) GLOBAL_UNCERTAINTY_ASSIGNED_CONTEXT ( ( #138 ) ) GLOBAL_UNIT_ASSIGNED_CONTEXT ( ( #44, #3, #101 ) ) REPRESENTATION_CONTEXT ( 'NONE', 'WORKASPACE' ) );
#101 =( NAMED_UNIT ( * ) SI_UNIT ( $, .STERADIAN. ) SOLID_ANGLE_UNIT ( ) );
#102 = DIRECTION ( 'NONE',  ( 0.0000000000000000000, -1.000000000000000000, 0.0000000000000000000 ) ) ;
#103 = FACE_OUTER_BOUND ( 'NONE', #18, .T. ) ;
#104 = ORIENTED_EDGE ( 'NONE', *, *, #30, .F. ) ;
#105 = DIRECTION ( 'NONE',  ( 0.0000000000000000000, 0.0000000000000000000, 1.000000000000000000 ) ) ;
#106 = COLOUR_RGB ( '',0.7529411764705882200, 0.7529411764705882200, 0.7529411764705882200 ) ;
#107 = ORIENTED_EDGE ( 'NONE', *, *, #17, .T. ) ;
#108 = MECHANICAL_DESIGN_GEOMETRIC_PRESENTATION_REPRESENTATION (  '', ( #96 ), #142 ) ;
#109 = ORIENTED_EDGE ( 'NONE', *, *, #167, .F. ) ;
#110 = CARTESIAN_POINT ( 'NONE',  ( -500.0000000000000000, -250.0000000000000000, -1.000000000000000000 ) ) ;
#111 = ORIENTED_EDGE ( 'NONE', *, *, #77, .T. ) ;
#112 = LINE ( 'NONE', #110, #50 ) ;
#113 = CARTESIAN_POINT ( 'NONE',  ( 500.0000000000000000, -250.0000000000000000, -1.000000000000000000 ) ) ;
#114 = DIRECTION ( 'NONE',  ( -1.000000000000000000, -0.0000000000000000000, 0.0000000000000000000 ) ) ;
#115 = ORIENTED_EDGE ( 'NONE', *, *, #25, .T. ) ;
#116 =( LENGTH_UNIT ( ) NAMED_UNIT ( * ) SI_UNIT ( .MILLI., .METRE. ) );
#117 = AXIS2_PLACEMENT_3D ( 'NONE', #188, #102, #26 ) ;
#118 = PRODUCT_CONTEXT ( 'NONE', #154, 'mechanical' ) ;
#119 = LINE ( 'NONE', #83, #16 ) ;
#120 = ORIENTED_EDGE ( 'NONE', *, *, #30, .T. ) ;
#121 = AXIS2_PLACEMENT_3D ( 'NONE', #41, #155, #140 ) ;
#122 = VECTOR ( 'NONE', #147, 1000.000000000000000 ) ;
#123 = VECTOR ( 'NONE', #194, 1000.000000000000000 ) ;
#124 = ADVANCED_FACE ( 'NONE', ( #81 ), #186, .T. ) ;
#125 = EDGE_CURVE ( 'NONE', #153, #189, #169, .T. ) ;
#126 = ORIENTED_EDGE ( 'NONE', *, *, #125, .F. ) ;
#127 =( GEOMETRIC_REPRESENTATION_CONTEXT ( 3 ) GLOBAL_UNCERTAINTY_ASSIGNED_CONTEXT ( ( #13 ) ) GLOBAL_UNIT_ASSIGNED_CONTEXT ( ( #175, #88, #137 ) ) REPRESENTATION_CONTEXT ( 'NONE', 'WORKASPACE' ) );
#128 = PLANE ( 'NONE',  #39 ) ;
#129 = CARTESIAN_POINT ( 'NONE',  ( 500.0000000000000000, 250.0000000000000000, -7.000000000000000000 ) ) ;
#130 = DIRECTION ( 'NONE',  ( 0.0000000000000000000, 0.0000000000000000000, 1.000000000000000000 ) ) ;
#131 = DIRECTION ( 'NONE',  ( 0.0000000000000000000, 0.0000000000000000000, -1.000000000000000000 ) ) ;
#132 = VERTEX_POINT ( 'NONE', #151 ) ;
#133 = DIRECTION ( 'NONE',  ( 0.0000000000000000000, 1.000000000000000000, -0.0000000000000000000 ) ) ;
#134 = DIRECTION ( 'NONE',  ( 0.0000000000000000000, -1.000000000000000000, -0.0000000000000000000 ) ) ;
#135 = LINE ( 'NONE', #22, #91 ) ;
#136 = VERTEX_POINT ( 'NONE', #87 ) ;
#137 =( NAMED_UNIT ( * ) SI_UNIT ( $, .STERADIAN. ) SOLID_ANGLE_UNIT ( ) );
#138 = UNCERTAINTY_MEASURE_WITH_UNIT (LENGTH_MEASURE( 1.000000000000000100E-005 ), #44, 'distance_accuracy_value', 'NONE');
#139 = FILL_AREA_STYLE_COLOUR ( '', #106 ) ;
#140 = DIRECTION ( 'NONE',  ( 1.000000000000000000, 0.0000000000000000000, 0.0000000000000000000 ) ) ;
#141 = PRESENTATION_LAYER_ASSIGNMENT (  '', '', ( #96 ) ) ;
#142 =( GEOMETRIC_REPRESENTATION_CONTEXT ( 3 ) GLOBAL_UNCERTAINTY_ASSIGNED_CONTEXT ( ( #171 ) ) GLOBAL_UNIT_ASSIGNED_CONTEXT ( ( #116, #55, #149 ) ) REPRESENTATION_CONTEXT ( 'NONE', 'WORKASPACE' ) );
#143 = ORIENTED_EDGE ( 'NONE', *, *, #160, .T. ) ;
#144 = ORIENTED_EDGE ( 'NONE', *, *, #8, .T. ) ;
#145 = ORIENTED_EDGE ( 'NONE', *, *, #125, .T. ) ;
#146 = PRODUCT_DEFINITION ( 'UNKNOWN', '', #172, #185 ) ;
#147 = DIRECTION ( 'NONE',  ( 1.000000000000000000, 0.0000000000000000000, -0.0000000000000000000 ) ) ;
#148 = CARTESIAN_POINT ( 'NONE',  ( -500.0000000000000000, -250.0000000000000000, -7.000000000000000000 ) ) ;
#149 =( NAMED_UNIT ( * ) SI_UNIT ( $, .STERADIAN. ) SOLID_ANGLE_UNIT ( ) );
#150 = CLOSED_SHELL ( 'NONE', ( #45, #75, #195, #192, #46, #124 ) ) ;
#151 = CARTESIAN_POINT ( 'NONE',  ( -500.0000000000000000, 250.0000000000000000, -7.000000000000000000 ) ) ;
#152 = EDGE_CURVE ( 'NONE', #48, #56, #135, .T. ) ;
#153 = VERTEX_POINT ( 'NONE', #170 ) ;
#154 = APPLICATION_CONTEXT ( 'automotive_design' ) ;
#155 = DIRECTION ( 'NONE',  ( 0.0000000000000000000, 0.0000000000000000000, 1.000000000000000000 ) ) ;
#156 = LINE ( 'NONE', #69, #196 ) ;
#157 = DIRECTION ( 'NONE',  ( -1.000000000000000000, 0.0000000000000000000, 0.0000000000000000000 ) ) ;
#158 = SURFACE_SIDE_STYLE ('',( #23 ) ) ;
#159 = EDGE_LOOP ( 'NONE', ( #21, #19, #95, #92 ) ) ;
#160 = EDGE_CURVE ( 'NONE', #86, #136, #119, .T. ) ;
#161 = LINE ( 'NONE', #93, #173 ) ;
#162 = AXIS2_PLACEMENT_3D ( 'NONE', #42, #157, #105 ) ;
#163 = ADVANCED_BREP_SHAPE_REPRESENTATION ( '6520209_CNAJF00', ( #89, #121 ), #127 ) ;
#164 = CARTESIAN_POINT ( 'NONE',  ( -500.0000000000000000, -250.0000000000000000, -7.000000000000000000 ) ) ;
#165 = DIRECTION ( 'NONE',  ( 0.0000000000000000000, -0.0000000000000000000, 1.000000000000000000 ) ) ;
#166 = DIRECTION ( 'NONE',  ( -0.0000000000000000000, 1.000000000000000000, 0.0000000000000000000 ) ) ;
#167 = EDGE_CURVE ( 'NONE', #86, #132, #76, .T. ) ;
#168 = CARTESIAN_POINT ( 'NONE',  ( -500.0000000000000000, 250.0000000000000000, -7.000000000000000000 ) ) ;
#169 = LINE ( 'NONE', #200, #7 ) ;
#170 = CARTESIAN_POINT ( 'NONE',  ( -500.0000000000000000, 250.0000000000000000, -1.000000000000000000 ) ) ;
#171 = UNCERTAINTY_MEASURE_WITH_UNIT (LENGTH_MEASURE( 1.000000000000000100E-005 ), #116, 'distance_accuracy_value', 'NONE');
#172 = PRODUCT_DEFINITION_FORMATION_WITH_SPECIFIED_SOURCE ( 'ANY', '', #178, .NOT_KNOWN. ) ;
#173 = VECTOR ( 'NONE', #166, 1000.000000000000000 ) ;
#174 = LINE ( 'NONE', #61, #123 ) ;
#175 =( LENGTH_UNIT ( ) NAMED_UNIT ( * ) SI_UNIT ( .MILLI., .METRE. ) );
#176 = APPLICATION_CONTEXT ( 'automotive_design' ) ;
#177 = PRODUCT_DEFINITION_SHAPE ( 'NONE', 'NONE',  #146 ) ;
#178 = PRODUCT ( '6520209_CNAJF00', '6520209_CNAJF00', '', ( #118 ) ) ;
#179 = CARTESIAN_POINT ( 'NONE',  ( -500.0000000000000000, -250.0000000000000000, -1.000000000000000000 ) ) ;
#180 = LINE ( 'NONE', #148, #122 ) ;
#181 = DIRECTION ( 'NONE',  ( 0.0000000000000000000, -1.000000000000000000, -0.0000000000000000000 ) ) ;
#182 = DIRECTION ( 'NONE',  ( 1.000000000000000000, 0.0000000000000000000, -0.0000000000000000000 ) ) ;
#183 = EDGE_LOOP ( 'NONE', ( #190, #111, #145, #120 ) ) ;
#184 = FILL_AREA_STYLE ('',( #37 ) ) ;
#185 = PRODUCT_DEFINITION_CONTEXT ( 'detailed design', #176, 'design' ) ;
#186 = PLANE ( 'NONE',  #33 ) ;
#187 = EDGE_LOOP ( 'NONE', ( #109, #24, #199, #99 ) ) ;
#188 = CARTESIAN_POINT ( 'NONE',  ( 500.0000000000000000, 250.0000000000000000, -1.000000000000000000 ) ) ;
#189 = VERTEX_POINT ( 'NONE', #36 ) ;
#190 = ORIENTED_EDGE ( 'NONE', *, *, #84, .T. ) ;
#191 = FACE_OUTER_BOUND ( 'NONE', #187, .T. ) ;
#192 = ADVANCED_FACE ( 'NONE', ( #34 ), #85, .F. ) ;
#193 = LINE ( 'NONE', #52, #47 ) ;
#194 = DIRECTION ( 'NONE',  ( -0.0000000000000000000, -0.0000000000000000000, 1.000000000000000000 ) ) ;
#195 = ADVANCED_FACE ( 'NONE', ( #98 ), #59, .F. ) ;
#196 = VECTOR ( 'NONE', #202, 1000.000000000000000 ) ;
#197 = FACE_OUTER_BOUND ( 'NONE', #29, .T. ) ;
#198 = CARTESIAN_POINT ( 'NONE',  ( -500.0000000000000000, 250.0000000000000000, -1.000000000000000000 ) ) ;
#199 = ORIENTED_EDGE ( 'NONE', *, *, #17, .F. ) ;
#200 = CARTESIAN_POINT ( 'NONE',  ( -500.0000000000000000, 250.0000000000000000, -1.000000000000000000 ) ) ;
#201 = DIRECTION ( 'NONE',  ( -0.0000000000000000000, 0.0000000000000000000, 1.000000000000000000 ) ) ;
#202 = DIRECTION ( 'NONE',  ( -1.000000000000000000, -0.0000000000000000000, -0.0000000000000000000 ) ) ;
ENDSEC;
END-ISO-10303-21;
