ISO-10303-21;
HEADER;
FILE_DESCRIPTION (( 'STEP AP214' ),
    '1' );
FILE_NAME ('6520200',
    '2019-02-01T12:48:12',
    ( '' ),
    ('JUGARD+KÜNSTNER GmbH'),
    'SwSTEP 2.0',
    'SolidWorks 2017',
    '' );
FILE_SCHEMA (( 'AUTOMOTIVE_DESIGN' ));
ENDSEC;

DATA;
#1 = CARTESIAN_POINT ( 'NONE',  ( -500.0000000000000000, -250.0000000000000000, -4.000000000000000000 ) ) ;
#2 = CARTESIAN_POINT ( 'NONE',  ( -500.0000000000000000, 250.0000000000000000, -4.000000000000000000 ) ) ;
#3 = VERTEX_POINT ( 'NONE', #80 ) ;
#4 = CARTESIAN_POINT ( 'NONE',  ( -500.0000000000000000, -250.0000000000000000, -4.000000000000000000 ) ) ;
#5 = FILL_AREA_STYLE ('',( #190 ) ) ;
#6 = PRODUCT_DEFINITION_FORMATION_WITH_SPECIFIED_SOURCE ( 'ANY', '', #89, .NOT_KNOWN. ) ;
#7 = DIRECTION ( 'NONE',  ( 0.0000000000000000000, 0.0000000000000000000, 1.000000000000000000 ) ) ;
#8 = DIRECTION ( 'NONE',  ( 0.0000000000000000000, 0.0000000000000000000, -1.000000000000000000 ) ) ;
#9 = LINE ( 'NONE', #157, #16 ) ;
#10 = AXIS2_PLACEMENT_3D ( 'NONE', #163, #180, #139 ) ;
#11 = DIRECTION ( 'NONE',  ( 1.000000000000000000, 0.0000000000000000000, -0.0000000000000000000 ) ) ;
#12 = LINE ( 'NONE', #56, #169 ) ;
#13 = MECHANICAL_DESIGN_GEOMETRIC_PRESENTATION_REPRESENTATION (  '', ( #107 ), #115 ) ;
#14 = PRESENTATION_STYLE_ASSIGNMENT (( #177 ) ) ;
#15 = EDGE_CURVE ( 'NONE', #136, #75, #9, .T. ) ;
#16 = VECTOR ( 'NONE', #200, 1000.000000000000000 ) ;
#17 = CARTESIAN_POINT ( 'NONE',  ( 500.0000000000000000, 250.0000000000000000, -4.000000000000000000 ) ) ;
#18 = EDGE_LOOP ( 'NONE', ( #52, #123, #88, #183 ) ) ;
#19 = DIRECTION ( 'NONE',  ( 0.0000000000000000000, 1.000000000000000000, -0.0000000000000000000 ) ) ;
#20 = CARTESIAN_POINT ( 'NONE',  ( -500.0000000000000000, -250.0000000000000000, -7.000000000000000000 ) ) ;
#21 = UNCERTAINTY_MEASURE_WITH_UNIT (LENGTH_MEASURE( 1.000000000000000100E-005 ), #74, 'distance_accuracy_value', 'NONE');
#22 = CARTESIAN_POINT ( 'NONE',  ( 500.0000000000000000, -250.0000000000000000, -7.000000000000000000 ) ) ;
#23 = VECTOR ( 'NONE', #62, 1000.000000000000000 ) ;
#24 = AXIS2_PLACEMENT_3D ( 'NONE', #85, #162, #31 ) ;
#25 = EDGE_CURVE ( 'NONE', #116, #3, #12, .T. ) ;
#26 = VECTOR ( 'NONE', #194, 1000.000000000000000 ) ;
#27 = ORIENTED_EDGE ( 'NONE', *, *, #35, .F. ) ;
#28 = ORIENTED_EDGE ( 'NONE', *, *, #84, .T. ) ;
#29 = APPLICATION_PROTOCOL_DEFINITION ( 'draft international standard', 'automotive_design', 1998, #152 ) ;
#30 = EDGE_LOOP ( 'NONE', ( #76, #67, #149, #109 ) ) ;
#31 = DIRECTION ( 'NONE',  ( 0.0000000000000000000, -0.0000000000000000000, 1.000000000000000000 ) ) ;
#32 = CARTESIAN_POINT ( 'NONE',  ( -500.0000000000000000, -250.0000000000000000, -4.000000000000000000 ) ) ;
#33 = ORIENTED_EDGE ( 'NONE', *, *, #35, .T. ) ;
#34 = CARTESIAN_POINT ( 'NONE',  ( 500.0000000000000000, -250.0000000000000000, -4.000000000000000000 ) ) ;
#35 = EDGE_CURVE ( 'NONE', #145, #98, #93, .T. ) ;
#36 = FACE_OUTER_BOUND ( 'NONE', #103, .T. ) ;
#37 = EDGE_CURVE ( 'NONE', #140, #53, #165, .T. ) ;
#38 = LINE ( 'NONE', #158, #202 ) ;
#39 = DIRECTION ( 'NONE',  ( -0.0000000000000000000, 0.0000000000000000000, 1.000000000000000000 ) ) ;
#40 = DIRECTION ( 'NONE',  ( 0.0000000000000000000, 0.0000000000000000000, 1.000000000000000000 ) ) ;
#41 = VECTOR ( 'NONE', #66, 1000.000000000000000 ) ;
#42 = EDGE_CURVE ( 'NONE', #75, #116, #134, .T. ) ;
#43 = DIRECTION ( 'NONE',  ( 0.0000000000000000000, -1.000000000000000000, -0.0000000000000000000 ) ) ;
#44 = LINE ( 'NONE', #113, #87 ) ;
#45 = EDGE_CURVE ( 'NONE', #98, #3, #38, .T. ) ;
#46 = ORIENTED_EDGE ( 'NONE', *, *, #37, .T. ) ;
#47 =( GEOMETRIC_REPRESENTATION_CONTEXT ( 3 ) GLOBAL_UNCERTAINTY_ASSIGNED_CONTEXT ( ( #21 ) ) GLOBAL_UNIT_ASSIGNED_CONTEXT ( ( #74, #100, #90 ) ) REPRESENTATION_CONTEXT ( 'NONE', 'WORKASPACE' ) );
#48 = LINE ( 'NONE', #4, #150 ) ;
#49 = SURFACE_STYLE_FILL_AREA ( #78 ) ;
#50 = PLANE ( 'NONE',  #69 ) ;
#51 = ADVANCED_FACE ( 'NONE', ( #92 ), #94, .F. ) ;
#52 = ORIENTED_EDGE ( 'NONE', *, *, #25, .T. ) ;
#53 = VERTEX_POINT ( 'NONE', #59 ) ;
#54 =( GEOMETRIC_REPRESENTATION_CONTEXT ( 3 ) GLOBAL_UNCERTAINTY_ASSIGNED_CONTEXT ( ( #191 ) ) GLOBAL_UNIT_ASSIGNED_CONTEXT ( ( #189, #82, #124 ) ) REPRESENTATION_CONTEXT ( 'NONE', 'WORKASPACE' ) );
#55 =( NAMED_UNIT ( * ) SI_UNIT ( $, .STERADIAN. ) SOLID_ANGLE_UNIT ( ) );
#56 = CARTESIAN_POINT ( 'NONE',  ( 500.0000000000000000, 250.0000000000000000, -4.000000000000000000 ) ) ;
#57 = EDGE_LOOP ( 'NONE', ( #46, #63, #135, #143 ) ) ;
#58 = ORIENTED_EDGE ( 'NONE', *, *, #166, .T. ) ;
#59 = CARTESIAN_POINT ( 'NONE',  ( -500.0000000000000000, 250.0000000000000000, -4.000000000000000000 ) ) ;
#60 = DIRECTION ( 'NONE',  ( -0.0000000000000000000, -0.0000000000000000000, 1.000000000000000000 ) ) ;
#61 = STYLED_ITEM ( 'NONE', ( #14 ), #125 ) ;
#62 = DIRECTION ( 'NONE',  ( 1.000000000000000000, 0.0000000000000000000, -0.0000000000000000000 ) ) ;
#63 = ORIENTED_EDGE ( 'NONE', *, *, #84, .F. ) ;
#64 = EDGE_LOOP ( 'NONE', ( #105, #28, #154, #33 ) ) ;
#65 = FACE_OUTER_BOUND ( 'NONE', #64, .T. ) ;
#66 = DIRECTION ( 'NONE',  ( -1.000000000000000000, -0.0000000000000000000, 0.0000000000000000000 ) ) ;
#67 = ORIENTED_EDGE ( 'NONE', *, *, #42, .F. ) ;
#68 = EDGE_LOOP ( 'NONE', ( #101, #27, #58, #112 ) ) ;
#69 = AXIS2_PLACEMENT_3D ( 'NONE', #91, #197, #70 ) ;
#70 = DIRECTION ( 'NONE',  ( 1.000000000000000000, 0.0000000000000000000, -0.0000000000000000000 ) ) ;
#71 = CARTESIAN_POINT ( 'NONE',  ( 500.0000000000000000, -250.0000000000000000, -4.000000000000000000 ) ) ;
#72 = AXIS2_PLACEMENT_3D ( 'NONE', #185, #40, #102 ) ;
#73 = COLOUR_RGB ( '',0.3411764705882353000, 0.3647058823529411600, 0.3803921568627450800 ) ;
#74 =( LENGTH_UNIT ( ) NAMED_UNIT ( * ) SI_UNIT ( .MILLI., .METRE. ) );
#75 = VERTEX_POINT ( 'NONE', #22 ) ;
#76 = ORIENTED_EDGE ( 'NONE', *, *, #151, .F. ) ;
#77 = ADVANCED_FACE ( 'NONE', ( #36 ), #126, .F. ) ;
#78 = FILL_AREA_STYLE ('',( #128 ) ) ;
#79 = PRODUCT_DEFINITION_CONTEXT ( 'detailed design', #152, 'design' ) ;
#80 = CARTESIAN_POINT ( 'NONE',  ( 500.0000000000000000, 250.0000000000000000, -4.000000000000000000 ) ) ;
#81 = VECTOR ( 'NONE', #96, 1000.000000000000000 ) ;
#82 =( NAMED_UNIT ( * ) PLANE_ANGLE_UNIT ( ) SI_UNIT ( $, .RADIAN. ) );
#83 = CARTESIAN_POINT ( 'NONE',  ( -500.0000000000000000, 250.0000000000000000, -7.000000000000000000 ) ) ;
#84 = EDGE_CURVE ( 'NONE', #3, #53, #156, .T. ) ;
#85 = CARTESIAN_POINT ( 'NONE',  ( -500.0000000000000000, -250.0000000000000000, -4.000000000000000000 ) ) ;
#86 = COLOUR_RGB ( '',0.7529411764705882200, 0.7529411764705882200, 0.7529411764705882200 ) ;
#87 = VECTOR ( 'NONE', #43, 1000.000000000000000 ) ;
#88 = ORIENTED_EDGE ( 'NONE', *, *, #175, .F. ) ;
#89 = PRODUCT ( '6520200_CNAJF00', '6520200_CNAJF00', '', ( #106 ) ) ;
#90 =( NAMED_UNIT ( * ) SI_UNIT ( $, .STERADIAN. ) SOLID_ANGLE_UNIT ( ) );
#91 = CARTESIAN_POINT ( 'NONE',  ( -500.0000000000000000, -250.0000000000000000, -4.000000000000000000 ) ) ;
#92 = FACE_OUTER_BOUND ( 'NONE', #68, .T. ) ;
#93 = LINE ( 'NONE', #1, #23 ) ;
#94 = PLANE ( 'NONE',  #24 ) ;
#95 = CARTESIAN_POINT ( 'NONE',  ( -500.0000000000000000, 250.0000000000000000, -4.000000000000000000 ) ) ;
#96 = DIRECTION ( 'NONE',  ( -0.0000000000000000000, 1.000000000000000000, 0.0000000000000000000 ) ) ;
#97 = PRESENTATION_STYLE_ASSIGNMENT (( #171 ) ) ;
#98 = VERTEX_POINT ( 'NONE', #121 ) ;
#99 = LINE ( 'NONE', #161, #193 ) ;
#100 =( NAMED_UNIT ( * ) PLANE_ANGLE_UNIT ( ) SI_UNIT ( $, .RADIAN. ) );
#101 = ORIENTED_EDGE ( 'NONE', *, *, #175, .T. ) ;
#102 = DIRECTION ( 'NONE',  ( 1.000000000000000000, 0.0000000000000000000, 0.0000000000000000000 ) ) ;
#103 = EDGE_LOOP ( 'NONE', ( #188, #144, #147, #170 ) ) ;
#104 = EDGE_CURVE ( 'NONE', #53, #145, #44, .T. ) ;
#105 = ORIENTED_EDGE ( 'NONE', *, *, #45, .T. ) ;
#106 = PRODUCT_CONTEXT ( 'NONE', #168, 'mechanical' ) ;
#107 = STYLED_ITEM ( 'NONE', ( #97 ), #119 ) ;
#108 = LINE ( 'NONE', #71, #26 ) ;
#109 = ORIENTED_EDGE ( 'NONE', *, *, #155, .F. ) ;
#110 = PLANE ( 'NONE',  #159 ) ;
#111 = DIRECTION ( 'NONE',  ( 0.0000000000000000000, 0.0000000000000000000, -1.000000000000000000 ) ) ;
#112 = ORIENTED_EDGE ( 'NONE', *, *, #15, .T. ) ;
#113 = CARTESIAN_POINT ( 'NONE',  ( -500.0000000000000000, 250.0000000000000000, -4.000000000000000000 ) ) ;
#114 = VECTOR ( 'NONE', #141, 1000.000000000000000 ) ;
#115 =( GEOMETRIC_REPRESENTATION_CONTEXT ( 3 ) GLOBAL_UNCERTAINTY_ASSIGNED_CONTEXT ( ( #174 ) ) GLOBAL_UNIT_ASSIGNED_CONTEXT ( ( #153, #132, #55 ) ) REPRESENTATION_CONTEXT ( 'NONE', 'WORKASPACE' ) );
#116 = VERTEX_POINT ( 'NONE', #179 ) ;
#117 = DIRECTION ( 'NONE',  ( 0.0000000000000000000, 0.0000000000000000000, 1.000000000000000000 ) ) ;
#118 = APPLICATION_PROTOCOL_DEFINITION ( 'draft international standard', 'automotive_design', 1998, #168 ) ;
#119 = ADVANCED_BREP_SHAPE_REPRESENTATION ( '6520200_CNAJF00', ( #125, #72 ), #47 ) ;
#120 = FACE_OUTER_BOUND ( 'NONE', #30, .T. ) ;
#121 = CARTESIAN_POINT ( 'NONE',  ( 500.0000000000000000, -250.0000000000000000, -4.000000000000000000 ) ) ;
#122 = SURFACE_STYLE_FILL_AREA ( #5 ) ;
#123 = ORIENTED_EDGE ( 'NONE', *, *, #45, .F. ) ;
#124 =( NAMED_UNIT ( * ) SI_UNIT ( $, .STERADIAN. ) SOLID_ANGLE_UNIT ( ) );
#125 = MANIFOLD_SOLID_BREP ( 'Importiert1', #199 ) ;
#126 = PLANE ( 'NONE',  #127 ) ;
#127 = AXIS2_PLACEMENT_3D ( 'NONE', #2, #181, #111 ) ;
#128 = FILL_AREA_STYLE_COLOUR ( '', #86 ) ;
#129 = FACE_OUTER_BOUND ( 'NONE', #18, .T. ) ;
#130 = ADVANCED_FACE ( 'NONE', ( #129 ), #110, .F. ) ;
#131 = PRODUCT_DEFINITION ( 'UNKNOWN', '', #6, #79 ) ;
#132 =( NAMED_UNIT ( * ) PLANE_ANGLE_UNIT ( ) SI_UNIT ( $, .RADIAN. ) );
#133 = ADVANCED_FACE ( 'NONE', ( #187 ), #178, .F. ) ;
#134 = LINE ( 'NONE', #142, #81 ) ;
#135 = ORIENTED_EDGE ( 'NONE', *, *, #25, .F. ) ;
#136 = VERTEX_POINT ( 'NONE', #20 ) ;
#137 = SURFACE_SIDE_STYLE ('',( #122 ) ) ;
#138 = CARTESIAN_POINT ( 'NONE',  ( -500.0000000000000000, 250.0000000000000000, -7.000000000000000000 ) ) ;
#139 = DIRECTION ( 'NONE',  ( 0.0000000000000000000, -0.0000000000000000000, -1.000000000000000000 ) ) ;
#140 = VERTEX_POINT ( 'NONE', #138 ) ;
#141 = DIRECTION ( 'NONE',  ( -1.000000000000000000, -0.0000000000000000000, -0.0000000000000000000 ) ) ;
#142 = CARTESIAN_POINT ( 'NONE',  ( 500.0000000000000000, -250.0000000000000000, -7.000000000000000000 ) ) ;
#143 = ORIENTED_EDGE ( 'NONE', *, *, #151, .T. ) ;
#144 = ORIENTED_EDGE ( 'NONE', *, *, #104, .F. ) ;
#145 = VERTEX_POINT ( 'NONE', #32 ) ;
#146 = PRESENTATION_LAYER_ASSIGNMENT (  '', '', ( #107 ) ) ;
#147 = ORIENTED_EDGE ( 'NONE', *, *, #37, .F. ) ;
#148 = PLANE ( 'NONE',  #196 ) ;
#149 = ORIENTED_EDGE ( 'NONE', *, *, #15, .F. ) ;
#150 = VECTOR ( 'NONE', #8, 1000.000000000000000 ) ;
#151 = EDGE_CURVE ( 'NONE', #116, #140, #186, .T. ) ;
#152 = APPLICATION_CONTEXT ( 'automotive_design' ) ;
#153 =( LENGTH_UNIT ( ) NAMED_UNIT ( * ) SI_UNIT ( .MILLI., .METRE. ) );
#154 = ORIENTED_EDGE ( 'NONE', *, *, #104, .T. ) ;
#155 = EDGE_CURVE ( 'NONE', #140, #136, #99, .T. ) ;
#156 = LINE ( 'NONE', #17, #114 ) ;
#157 = CARTESIAN_POINT ( 'NONE',  ( -500.0000000000000000, -250.0000000000000000, -7.000000000000000000 ) ) ;
#158 = CARTESIAN_POINT ( 'NONE',  ( 500.0000000000000000, -250.0000000000000000, -4.000000000000000000 ) ) ;
#159 = AXIS2_PLACEMENT_3D ( 'NONE', #34, #164, #7 ) ;
#160 = PRODUCT_DEFINITION_SHAPE ( 'NONE', 'NONE',  #131 ) ;
#161 = CARTESIAN_POINT ( 'NONE',  ( -500.0000000000000000, -250.0000000000000000, -7.000000000000000000 ) ) ;
#162 = DIRECTION ( 'NONE',  ( 0.0000000000000000000, 1.000000000000000000, 0.0000000000000000000 ) ) ;
#163 = CARTESIAN_POINT ( 'NONE',  ( 500.0000000000000000, 250.0000000000000000, -4.000000000000000000 ) ) ;
#164 = DIRECTION ( 'NONE',  ( -1.000000000000000000, 0.0000000000000000000, 0.0000000000000000000 ) ) ;
#165 = LINE ( 'NONE', #95, #198 ) ;
#166 = EDGE_CURVE ( 'NONE', #145, #136, #48, .T. ) ;
#167 = PRESENTATION_LAYER_ASSIGNMENT (  '', '', ( #61 ) ) ;
#168 = APPLICATION_CONTEXT ( 'automotive_design' ) ;
#169 = VECTOR ( 'NONE', #39, 1000.000000000000000 ) ;
#170 = ORIENTED_EDGE ( 'NONE', *, *, #155, .T. ) ;
#171 = SURFACE_STYLE_USAGE ( .BOTH. , #172 ) ;
#172 = SURFACE_SIDE_STYLE ('',( #49 ) ) ;
#173 = ADVANCED_FACE ( 'NONE', ( #65 ), #50, .T. ) ;
#174 = UNCERTAINTY_MEASURE_WITH_UNIT (LENGTH_MEASURE( 1.000000000000000100E-005 ), #153, 'distance_accuracy_value', 'NONE');
#175 = EDGE_CURVE ( 'NONE', #75, #98, #108, .T. ) ;
#176 = SHAPE_DEFINITION_REPRESENTATION ( #160, #119 ) ;
#177 = SURFACE_STYLE_USAGE ( .BOTH. , #137 ) ;
#178 = PLANE ( 'NONE',  #10 ) ;
#179 = CARTESIAN_POINT ( 'NONE',  ( 500.0000000000000000, 250.0000000000000000, -7.000000000000000000 ) ) ;
#180 = DIRECTION ( 'NONE',  ( 0.0000000000000000000, -1.000000000000000000, 0.0000000000000000000 ) ) ;
#181 = DIRECTION ( 'NONE',  ( 1.000000000000000000, 0.0000000000000000000, 0.0000000000000000000 ) ) ;
#182 = DIRECTION ( 'NONE',  ( 0.0000000000000000000, -1.000000000000000000, -0.0000000000000000000 ) ) ;
#183 = ORIENTED_EDGE ( 'NONE', *, *, #42, .T. ) ;
#184 = PRODUCT_RELATED_PRODUCT_CATEGORY ( 'part', '', ( #89 ) ) ;
#185 = CARTESIAN_POINT ( 'NONE',  ( 0.0000000000000000000, 0.0000000000000000000, 0.0000000000000000000 ) ) ;
#186 = LINE ( 'NONE', #83, #41 ) ;
#187 = FACE_OUTER_BOUND ( 'NONE', #57, .T. ) ;
#188 = ORIENTED_EDGE ( 'NONE', *, *, #166, .F. ) ;
#189 =( LENGTH_UNIT ( ) NAMED_UNIT ( * ) SI_UNIT ( .MILLI., .METRE. ) );
#190 = FILL_AREA_STYLE_COLOUR ( '', #73 ) ;
#191 = UNCERTAINTY_MEASURE_WITH_UNIT (LENGTH_MEASURE( 1.000000000000000100E-005 ), #189, 'distance_accuracy_value', 'NONE');
#192 = MECHANICAL_DESIGN_GEOMETRIC_PRESENTATION_REPRESENTATION (  '', ( #61 ), #54 ) ;
#193 = VECTOR ( 'NONE', #182, 1000.000000000000000 ) ;
#194 = DIRECTION ( 'NONE',  ( 0.0000000000000000000, 0.0000000000000000000, 1.000000000000000000 ) ) ;
#195 = CARTESIAN_POINT ( 'NONE',  ( -500.0000000000000000, -250.0000000000000000, -7.000000000000000000 ) ) ;
#196 = AXIS2_PLACEMENT_3D ( 'NONE', #195, #117, #11 ) ;
#197 = DIRECTION ( 'NONE',  ( 0.0000000000000000000, 0.0000000000000000000, 1.000000000000000000 ) ) ;
#198 = VECTOR ( 'NONE', #60, 1000.000000000000000 ) ;
#199 = CLOSED_SHELL ( 'NONE', ( #201, #77, #133, #130, #51, #173 ) ) ;
#200 = DIRECTION ( 'NONE',  ( 1.000000000000000000, 0.0000000000000000000, -0.0000000000000000000 ) ) ;
#201 = ADVANCED_FACE ( 'NONE', ( #120 ), #148, .F. ) ;
#202 = VECTOR ( 'NONE', #19, 1000.000000000000000 ) ;
ENDSEC;
END-ISO-10303-21;
