ISO-10303-21;
HEADER;
FILE_DESCRIPTION (( 'STEP AP214' ),
    '1' );
FILE_NAME ('6520176',
    '2019-02-01T12:48:17',
    ( '' ),
    ('JUGARD+KÜNSTNER GmbH'),
    'SwSTEP 2.0',
    'SolidWorks 2017',
    '' );
FILE_SCHEMA (( 'AUTOMOTIVE_DESIGN' ));
ENDSEC;

DATA;
#1 = CARTESIAN_POINT ( 'NONE',  ( 500.0000000000000000, 250.0000000000000000, 3.000000000000000000 ) ) ;
#2 = VECTOR ( 'NONE', #193, 1000.000000000000000 ) ;
#3 = STYLED_ITEM ( 'NONE', ( #165 ), #43 ) ;
#4 = PRODUCT_DEFINITION_SHAPE ( 'NONE', 'NONE',  #113 ) ;
#5 = ADVANCED_FACE ( 'NONE', ( #196 ), #91, .F. ) ;
#6 = AXIS2_PLACEMENT_3D ( 'NONE', #174, #142, #106 ) ;
#7 = ADVANCED_FACE ( 'NONE', ( #177 ), #57, .F. ) ;
#8 =( GEOMETRIC_REPRESENTATION_CONTEXT ( 3 ) GLOBAL_UNCERTAINTY_ASSIGNED_CONTEXT ( ( #99 ) ) GLOBAL_UNIT_ASSIGNED_CONTEXT ( ( #11, #127, #144 ) ) REPRESENTATION_CONTEXT ( 'NONE', 'WORKASPACE' ) );
#9 = VECTOR ( 'NONE', #111, 1000.000000000000000 ) ;
#10 = FILL_AREA_STYLE ('',( #56 ) ) ;
#11 =( LENGTH_UNIT ( ) NAMED_UNIT ( * ) SI_UNIT ( .MILLI., .METRE. ) );
#12 = EDGE_LOOP ( 'NONE', ( #94, #23, #31, #139 ) ) ;
#13 = DIRECTION ( 'NONE',  ( 0.0000000000000000000, 1.000000000000000000, -0.0000000000000000000 ) ) ;
#14 = VECTOR ( 'NONE', #80, 1000.000000000000000 ) ;
#15 = CARTESIAN_POINT ( 'NONE',  ( -500.0000000000000000, -250.0000000000000000, 3.000000000000000000 ) ) ;
#16 = FILL_AREA_STYLE_COLOUR ( '', #136 ) ;
#17 = DIRECTION ( 'NONE',  ( 0.0000000000000000000, -0.0000000000000000000, 1.000000000000000000 ) ) ;
#18 = APPLICATION_PROTOCOL_DEFINITION ( 'draft international standard', 'automotive_design', 1998, #62 ) ;
#19 = LINE ( 'NONE', #60, #121 ) ;
#20 = ORIENTED_EDGE ( 'NONE', *, *, #141, .F. ) ;
#21 = ORIENTED_EDGE ( 'NONE', *, *, #200, .T. ) ;
#22 = AXIS2_PLACEMENT_3D ( 'NONE', #85, #117, #17 ) ;
#23 = ORIENTED_EDGE ( 'NONE', *, *, #88, .F. ) ;
#24 = CARTESIAN_POINT ( 'NONE',  ( 500.0000000000000000, 250.0000000000000000, 3.000000000000000000 ) ) ;
#25 = CARTESIAN_POINT ( 'NONE',  ( -500.0000000000000000, -250.0000000000000000, 0.0000000000000000000 ) ) ;
#26 = ORIENTED_EDGE ( 'NONE', *, *, #171, .F. ) ;
#27 = DIRECTION ( 'NONE',  ( -0.0000000000000000000, -0.0000000000000000000, 1.000000000000000000 ) ) ;
#28 = LINE ( 'NONE', #173, #58 ) ;
#29 = VERTEX_POINT ( 'NONE', #108 ) ;
#30 = LINE ( 'NONE', #146, #138 ) ;
#31 = ORIENTED_EDGE ( 'NONE', *, *, #76, .F. ) ;
#32 = DIRECTION ( 'NONE',  ( 1.000000000000000000, 0.0000000000000000000, 0.0000000000000000000 ) ) ;
#33 = APPLICATION_CONTEXT ( 'automotive_design' ) ;
#34 = STYLED_ITEM ( 'NONE', ( #83 ), #159 ) ;
#35 = CARTESIAN_POINT ( 'NONE',  ( 500.0000000000000000, -250.0000000000000000, 0.0000000000000000000 ) ) ;
#36 = LINE ( 'NONE', #135, #39 ) ;
#37 = VERTEX_POINT ( 'NONE', #74 ) ;
#38 = EDGE_CURVE ( 'NONE', #152, #64, #28, .T. ) ;
#39 = VECTOR ( 'NONE', #179, 1000.000000000000000 ) ;
#40 = PRODUCT ( '6520176_CNAJF00', '6520176_CNAJF00', '', ( #153 ) ) ;
#41 = DIRECTION ( 'NONE',  ( 0.0000000000000000000, 0.0000000000000000000, 1.000000000000000000 ) ) ;
#42 = SURFACE_STYLE_FILL_AREA ( #133 ) ;
#43 = MANIFOLD_SOLID_BREP ( 'Importiert1', #65 ) ;
#44 = PLANE ( 'NONE',  #82 ) ;
#45 = PLANE ( 'NONE',  #97 ) ;
#46 = AXIS2_PLACEMENT_3D ( 'NONE', #151, #49, #32 ) ;
#47 = CARTESIAN_POINT ( 'NONE',  ( 500.0000000000000000, 250.0000000000000000, 3.000000000000000000 ) ) ;
#48 = ORIENTED_EDGE ( 'NONE', *, *, #66, .F. ) ;
#49 = DIRECTION ( 'NONE',  ( 0.0000000000000000000, 0.0000000000000000000, 1.000000000000000000 ) ) ;
#50 = LINE ( 'NONE', #1, #14 ) ;
#51 = VECTOR ( 'NONE', #104, 1000.000000000000000 ) ;
#52 = ORIENTED_EDGE ( 'NONE', *, *, #195, .T. ) ;
#53 = LINE ( 'NONE', #124, #158 ) ;
#54 = EDGE_LOOP ( 'NONE', ( #194, #188, #172, #79 ) ) ;
#55 = DIRECTION ( 'NONE',  ( -1.000000000000000000, 0.0000000000000000000, 0.0000000000000000000 ) ) ;
#56 = FILL_AREA_STYLE_COLOUR ( '', #71 ) ;
#57 = PLANE ( 'NONE',  #6 ) ;
#58 = VECTOR ( 'NONE', #73, 1000.000000000000000 ) ;
#59 = EDGE_CURVE ( 'NONE', #29, #107, #53, .T. ) ;
#60 = CARTESIAN_POINT ( 'NONE',  ( -500.0000000000000000, 250.0000000000000000, 0.0000000000000000000 ) ) ;
#61 = DIRECTION ( 'NONE',  ( 0.0000000000000000000, 0.0000000000000000000, 1.000000000000000000 ) ) ;
#62 = APPLICATION_CONTEXT ( 'automotive_design' ) ;
#63 = SURFACE_SIDE_STYLE ('',( #42 ) ) ;
#64 = VERTEX_POINT ( 'NONE', #126 ) ;
#65 = CLOSED_SHELL ( 'NONE', ( #5, #105, #7, #101, #185, #120 ) ) ;
#66 = EDGE_CURVE ( 'NONE', #152, #93, #119, .T. ) ;
#67 = LINE ( 'NONE', #114, #2 ) ;
#68 = ORIENTED_EDGE ( 'NONE', *, *, #200, .F. ) ;
#69 = MECHANICAL_DESIGN_GEOMETRIC_PRESENTATION_REPRESENTATION (  '', ( #3 ), #8 ) ;
#70 = PLANE ( 'NONE',  #164 ) ;
#71 = COLOUR_RGB ( '',1.000000000000000000, 1.000000000000000000, 1.000000000000000000 ) ;
#72 = DIRECTION ( 'NONE',  ( 1.000000000000000000, 0.0000000000000000000, -0.0000000000000000000 ) ) ;
#73 = DIRECTION ( 'NONE',  ( 0.0000000000000000000, -1.000000000000000000, -0.0000000000000000000 ) ) ;
#74 = CARTESIAN_POINT ( 'NONE',  ( 500.0000000000000000, 250.0000000000000000, 0.0000000000000000000 ) ) ;
#75 = LINE ( 'NONE', #47, #180 ) ;
#76 = EDGE_CURVE ( 'NONE', #64, #199, #183, .T. ) ;
#77 = PLANE ( 'NONE',  #22 ) ;
#78 = DIRECTION ( 'NONE',  ( -1.000000000000000000, -0.0000000000000000000, 0.0000000000000000000 ) ) ;
#79 = ORIENTED_EDGE ( 'NONE', *, *, #129, .T. ) ;
#80 = DIRECTION ( 'NONE',  ( -0.0000000000000000000, 0.0000000000000000000, 1.000000000000000000 ) ) ;
#81 =( LENGTH_UNIT ( ) NAMED_UNIT ( * ) SI_UNIT ( .MILLI., .METRE. ) );
#82 = AXIS2_PLACEMENT_3D ( 'NONE', #140, #55, #41 ) ;
#83 = PRESENTATION_STYLE_ASSIGNMENT (( #169 ) ) ;
#84 =( NAMED_UNIT ( * ) SI_UNIT ( $, .STERADIAN. ) SOLID_ANGLE_UNIT ( ) );
#85 = CARTESIAN_POINT ( 'NONE',  ( -500.0000000000000000, -250.0000000000000000, 3.000000000000000000 ) ) ;
#86 =( GEOMETRIC_REPRESENTATION_CONTEXT ( 3 ) GLOBAL_UNCERTAINTY_ASSIGNED_CONTEXT ( ( #184 ) ) GLOBAL_UNIT_ASSIGNED_CONTEXT ( ( #131, #167, #84 ) ) REPRESENTATION_CONTEXT ( 'NONE', 'WORKASPACE' ) );
#87 = FACE_OUTER_BOUND ( 'NONE', #116, .T. ) ;
#88 = EDGE_CURVE ( 'NONE', #199, #37, #30, .T. ) ;
#89 = FACE_OUTER_BOUND ( 'NONE', #197, .T. ) ;
#90 = DIRECTION ( 'NONE',  ( 0.0000000000000000000, 0.0000000000000000000, 1.000000000000000000 ) ) ;
#91 = PLANE ( 'NONE',  #100 ) ;
#92 = CARTESIAN_POINT ( 'NONE',  ( -500.0000000000000000, -250.0000000000000000, 3.000000000000000000 ) ) ;
#93 = VERTEX_POINT ( 'NONE', #189 ) ;
#94 = ORIENTED_EDGE ( 'NONE', *, *, #129, .F. ) ;
#95 =( NAMED_UNIT ( * ) PLANE_ANGLE_UNIT ( ) SI_UNIT ( $, .RADIAN. ) );
#96 = APPLICATION_PROTOCOL_DEFINITION ( 'draft international standard', 'automotive_design', 1998, #33 ) ;
#97 = AXIS2_PLACEMENT_3D ( 'NONE', #15, #61, #115 ) ;
#98 = LINE ( 'NONE', #110, #9 ) ;
#99 = UNCERTAINTY_MEASURE_WITH_UNIT (LENGTH_MEASURE( 1.000000000000000100E-005 ), #11, 'distance_accuracy_value', 'NONE');
#100 = AXIS2_PLACEMENT_3D ( 'NONE', #201, #90, #72 ) ;
#101 = ADVANCED_FACE ( 'NONE', ( #87 ), #44, .F. ) ;
#102 = SHAPE_DEFINITION_REPRESENTATION ( #4, #159 ) ;
#103 = EDGE_LOOP ( 'NONE', ( #118, #26, #48, #166 ) ) ;
#104 = DIRECTION ( 'NONE',  ( 1.000000000000000000, 0.0000000000000000000, -0.0000000000000000000 ) ) ;
#105 = ADVANCED_FACE ( 'NONE', ( #175 ), #70, .F. ) ;
#106 = DIRECTION ( 'NONE',  ( 0.0000000000000000000, -0.0000000000000000000, -1.000000000000000000 ) ) ;
#107 = VERTEX_POINT ( 'NONE', #24 ) ;
#108 = CARTESIAN_POINT ( 'NONE',  ( 500.0000000000000000, -250.0000000000000000, 3.000000000000000000 ) ) ;
#109 = SURFACE_STYLE_USAGE ( .BOTH. , #187 ) ;
#110 = CARTESIAN_POINT ( 'NONE',  ( -500.0000000000000000, 250.0000000000000000, 3.000000000000000000 ) ) ;
#111 = DIRECTION ( 'NONE',  ( 0.0000000000000000000, -1.000000000000000000, -0.0000000000000000000 ) ) ;
#112 = ORIENTED_EDGE ( 'NONE', *, *, #161, .T. ) ;
#113 = PRODUCT_DEFINITION ( 'UNKNOWN', '', #143, #125 ) ;
#114 = CARTESIAN_POINT ( 'NONE',  ( -500.0000000000000000, -250.0000000000000000, 3.000000000000000000 ) ) ;
#115 = DIRECTION ( 'NONE',  ( 1.000000000000000000, 0.0000000000000000000, -0.0000000000000000000 ) ) ;
#116 = EDGE_LOOP ( 'NONE', ( #112, #182, #20, #156 ) ) ;
#117 = DIRECTION ( 'NONE',  ( 0.0000000000000000000, 1.000000000000000000, 0.0000000000000000000 ) ) ;
#118 = ORIENTED_EDGE ( 'NONE', *, *, #195, .F. ) ;
#119 = LINE ( 'NONE', #122, #176 ) ;
#120 = ADVANCED_FACE ( 'NONE', ( #137 ), #45, .T. ) ;
#121 = VECTOR ( 'NONE', #78, 1000.000000000000000 ) ;
#122 = CARTESIAN_POINT ( 'NONE',  ( -500.0000000000000000, 250.0000000000000000, 3.000000000000000000 ) ) ;
#123 = ORIENTED_EDGE ( 'NONE', *, *, #181, .T. ) ;
#124 = CARTESIAN_POINT ( 'NONE',  ( 500.0000000000000000, -250.0000000000000000, 3.000000000000000000 ) ) ;
#125 = PRODUCT_DEFINITION_CONTEXT ( 'detailed design', #62, 'design' ) ;
#126 = CARTESIAN_POINT ( 'NONE',  ( -500.0000000000000000, -250.0000000000000000, 0.0000000000000000000 ) ) ;
#127 =( NAMED_UNIT ( * ) PLANE_ANGLE_UNIT ( ) SI_UNIT ( $, .RADIAN. ) );
#128 = UNCERTAINTY_MEASURE_WITH_UNIT (LENGTH_MEASURE( 1.000000000000000100E-005 ), #81, 'distance_accuracy_value', 'NONE');
#129 = EDGE_CURVE ( 'NONE', #37, #152, #19, .T. ) ;
#130 = DIRECTION ( 'NONE',  ( 0.0000000000000000000, 0.0000000000000000000, -1.000000000000000000 ) ) ;
#131 =( LENGTH_UNIT ( ) NAMED_UNIT ( * ) SI_UNIT ( .MILLI., .METRE. ) );
#132 = PRESENTATION_LAYER_ASSIGNMENT (  '', '', ( #34 ) ) ;
#133 = FILL_AREA_STYLE ('',( #16 ) ) ;
#134 =( NAMED_UNIT ( * ) SI_UNIT ( $, .STERADIAN. ) SOLID_ANGLE_UNIT ( ) );
#135 = CARTESIAN_POINT ( 'NONE',  ( -500.0000000000000000, -250.0000000000000000, 3.000000000000000000 ) ) ;
#136 = COLOUR_RGB ( '',0.7529411764705882200, 0.7529411764705882200, 0.7529411764705882200 ) ;
#137 = FACE_OUTER_BOUND ( 'NONE', #155, .T. ) ;
#138 = VECTOR ( 'NONE', #160, 1000.000000000000000 ) ;
#139 = ORIENTED_EDGE ( 'NONE', *, *, #38, .F. ) ;
#140 = CARTESIAN_POINT ( 'NONE',  ( 500.0000000000000000, -250.0000000000000000, 3.000000000000000000 ) ) ;
#141 = EDGE_CURVE ( 'NONE', #199, #29, #168, .T. ) ;
#142 = DIRECTION ( 'NONE',  ( 0.0000000000000000000, -1.000000000000000000, 0.0000000000000000000 ) ) ;
#143 = PRODUCT_DEFINITION_FORMATION_WITH_SPECIFIED_SOURCE ( 'ANY', '', #40, .NOT_KNOWN. ) ;
#144 =( NAMED_UNIT ( * ) SI_UNIT ( $, .STERADIAN. ) SOLID_ANGLE_UNIT ( ) );
#145 = ORIENTED_EDGE ( 'NONE', *, *, #171, .T. ) ;
#146 = CARTESIAN_POINT ( 'NONE',  ( 500.0000000000000000, -250.0000000000000000, 0.0000000000000000000 ) ) ;
#147 = DIRECTION ( 'NONE',  ( 1.000000000000000000, 0.0000000000000000000, 0.0000000000000000000 ) ) ;
#148 = VECTOR ( 'NONE', #202, 1000.000000000000000 ) ;
#149 = VERTEX_POINT ( 'NONE', #92 ) ;
#150 = CARTESIAN_POINT ( 'NONE',  ( 500.0000000000000000, -250.0000000000000000, 3.000000000000000000 ) ) ;
#151 = CARTESIAN_POINT ( 'NONE',  ( 0.0000000000000000000, 0.0000000000000000000, 0.0000000000000000000 ) ) ;
#152 = VERTEX_POINT ( 'NONE', #163 ) ;
#153 = PRODUCT_CONTEXT ( 'NONE', #33, 'mechanical' ) ;
#154 = ORIENTED_EDGE ( 'NONE', *, *, #76, .T. ) ;
#155 = EDGE_LOOP ( 'NONE', ( #162, #123, #145, #21 ) ) ;
#156 = ORIENTED_EDGE ( 'NONE', *, *, #88, .T. ) ;
#157 = PRODUCT_RELATED_PRODUCT_CATEGORY ( 'part', '', ( #40 ) ) ;
#158 = VECTOR ( 'NONE', #13, 1000.000000000000000 ) ;
#159 = ADVANCED_BREP_SHAPE_REPRESENTATION ( '6520176_CNAJF00', ( #43, #46 ), #190 ) ;
#160 = DIRECTION ( 'NONE',  ( -0.0000000000000000000, 1.000000000000000000, 0.0000000000000000000 ) ) ;
#161 = EDGE_CURVE ( 'NONE', #37, #107, #50, .T. ) ;
#162 = ORIENTED_EDGE ( 'NONE', *, *, #59, .T. ) ;
#163 = CARTESIAN_POINT ( 'NONE',  ( -500.0000000000000000, 250.0000000000000000, 0.0000000000000000000 ) ) ;
#164 = AXIS2_PLACEMENT_3D ( 'NONE', #186, #147, #130 ) ;
#165 = PRESENTATION_STYLE_ASSIGNMENT (( #109 ) ) ;
#166 = ORIENTED_EDGE ( 'NONE', *, *, #38, .T. ) ;
#167 =( NAMED_UNIT ( * ) PLANE_ANGLE_UNIT ( ) SI_UNIT ( $, .RADIAN. ) );
#168 = LINE ( 'NONE', #150, #148 ) ;
#169 = SURFACE_STYLE_USAGE ( .BOTH. , #63 ) ;
#170 = PRESENTATION_LAYER_ASSIGNMENT (  '', '', ( #3 ) ) ;
#171 = EDGE_CURVE ( 'NONE', #93, #149, #98, .T. ) ;
#172 = ORIENTED_EDGE ( 'NONE', *, *, #161, .F. ) ;
#173 = CARTESIAN_POINT ( 'NONE',  ( -500.0000000000000000, -250.0000000000000000, 0.0000000000000000000 ) ) ;
#174 = CARTESIAN_POINT ( 'NONE',  ( 500.0000000000000000, 250.0000000000000000, 3.000000000000000000 ) ) ;
#175 = FACE_OUTER_BOUND ( 'NONE', #103, .T. ) ;
#176 = VECTOR ( 'NONE', #27, 1000.000000000000000 ) ;
#177 = FACE_OUTER_BOUND ( 'NONE', #54, .T. ) ;
#178 = SURFACE_STYLE_FILL_AREA ( #10 ) ;
#179 = DIRECTION ( 'NONE',  ( 1.000000000000000000, 0.0000000000000000000, -0.0000000000000000000 ) ) ;
#180 = VECTOR ( 'NONE', #192, 1000.000000000000000 ) ;
#181 = EDGE_CURVE ( 'NONE', #107, #93, #75, .T. ) ;
#182 = ORIENTED_EDGE ( 'NONE', *, *, #59, .F. ) ;
#183 = LINE ( 'NONE', #25, #51 ) ;
#184 = UNCERTAINTY_MEASURE_WITH_UNIT (LENGTH_MEASURE( 1.000000000000000100E-005 ), #131, 'distance_accuracy_value', 'NONE');
#185 = ADVANCED_FACE ( 'NONE', ( #89 ), #77, .F. ) ;
#186 = CARTESIAN_POINT ( 'NONE',  ( -500.0000000000000000, 250.0000000000000000, 3.000000000000000000 ) ) ;
#187 = SURFACE_SIDE_STYLE ('',( #178 ) ) ;
#188 = ORIENTED_EDGE ( 'NONE', *, *, #181, .F. ) ;
#189 = CARTESIAN_POINT ( 'NONE',  ( -500.0000000000000000, 250.0000000000000000, 3.000000000000000000 ) ) ;
#190 =( GEOMETRIC_REPRESENTATION_CONTEXT ( 3 ) GLOBAL_UNCERTAINTY_ASSIGNED_CONTEXT ( ( #128 ) ) GLOBAL_UNIT_ASSIGNED_CONTEXT ( ( #81, #95, #134 ) ) REPRESENTATION_CONTEXT ( 'NONE', 'WORKASPACE' ) );
#191 = ORIENTED_EDGE ( 'NONE', *, *, #141, .T. ) ;
#192 = DIRECTION ( 'NONE',  ( -1.000000000000000000, -0.0000000000000000000, -0.0000000000000000000 ) ) ;
#193 = DIRECTION ( 'NONE',  ( 0.0000000000000000000, 0.0000000000000000000, -1.000000000000000000 ) ) ;
#194 = ORIENTED_EDGE ( 'NONE', *, *, #66, .T. ) ;
#195 = EDGE_CURVE ( 'NONE', #149, #64, #67, .T. ) ;
#196 = FACE_OUTER_BOUND ( 'NONE', #12, .T. ) ;
#197 = EDGE_LOOP ( 'NONE', ( #191, #68, #52, #154 ) ) ;
#198 = MECHANICAL_DESIGN_GEOMETRIC_PRESENTATION_REPRESENTATION (  '', ( #34 ), #86 ) ;
#199 = VERTEX_POINT ( 'NONE', #35 ) ;
#200 = EDGE_CURVE ( 'NONE', #149, #29, #36, .T. ) ;
#201 = CARTESIAN_POINT ( 'NONE',  ( -500.0000000000000000, -250.0000000000000000, 0.0000000000000000000 ) ) ;
#202 = DIRECTION ( 'NONE',  ( 0.0000000000000000000, 0.0000000000000000000, 1.000000000000000000 ) ) ;
ENDSEC;
END-ISO-10303-21;
