ISO-10303-21;
HEADER;
FILE_DESCRIPTION (( 'STEP AP214' ),
    '1' );
FILE_NAME ('6520148',
    '2019-02-01T12:50:24',
    ( '' ),
    ('JUGARD+KÜNSTNER GmbH'),
    'SwSTEP 2.0',
    'SolidWorks 2017',
    '' );
FILE_SCHEMA (( 'AUTOMOTIVE_DESIGN' ));
ENDSEC;

DATA;
#1 = DIRECTION ( 'NONE',  ( -0.0000000000000000000, 0.0000000000000000000, 1.000000000000000000 ) ) ;
#2 = DIRECTION ( 'NONE',  ( 0.0000000000000000000, -0.0000000000000000000, 1.000000000000000000 ) ) ;
#3 = DIRECTION ( 'NONE',  ( 1.000000000000000000, 0.0000000000000000000, -0.0000000000000000000 ) ) ;
#4 = PLANE ( 'NONE',  #79 ) ;
#5 = APPLICATION_PROTOCOL_DEFINITION ( 'draft international standard', 'automotive_design', 1998, #120 ) ;
#6 = EDGE_CURVE ( 'NONE', #181, #33, #73, .T. ) ;
#7 = EDGE_LOOP ( 'NONE', ( #199, #122, #47, #66 ) ) ;
#8 = EDGE_CURVE ( 'NONE', #195, #96, #109, .T. ) ;
#9 = PRODUCT_DEFINITION_CONTEXT ( 'detailed design', #120, 'design' ) ;
#10 = PRESENTATION_STYLE_ASSIGNMENT (( #157 ) ) ;
#11 = LINE ( 'NONE', #167, #148 ) ;
#12 = DIRECTION ( 'NONE',  ( -0.0000000000000000000, -0.0000000000000000000, 1.000000000000000000 ) ) ;
#13 = CARTESIAN_POINT ( 'NONE',  ( 0.0000000000000000000, 0.0000000000000000000, 0.0000000000000000000 ) ) ;
#14 = EDGE_LOOP ( 'NONE', ( #94, #160, #198, #113 ) ) ;
#15 = PRESENTATION_LAYER_ASSIGNMENT (  '', '', ( #41 ) ) ;
#16 = CARTESIAN_POINT ( 'NONE',  ( -500.0000000000000000, -250.0000000000000000, 4.000000000000000000 ) ) ;
#17 = PLANE ( 'NONE',  #83 ) ;
#18 = EDGE_CURVE ( 'NONE', #143, #119, #11, .T. ) ;
#19 = CARTESIAN_POINT ( 'NONE',  ( 500.0000000000000000, 250.0000000000000000, 4.000000000000000000 ) ) ;
#20 = EDGE_LOOP ( 'NONE', ( #155, #135, #136, #106 ) ) ;
#21 =( NAMED_UNIT ( * ) PLANE_ANGLE_UNIT ( ) SI_UNIT ( $, .RADIAN. ) );
#22 = DIRECTION ( 'NONE',  ( -1.000000000000000000, 0.0000000000000000000, 0.0000000000000000000 ) ) ;
#23 = FACE_OUTER_BOUND ( 'NONE', #44, .T. ) ;
#24 = VECTOR ( 'NONE', #65, 1000.000000000000000 ) ;
#25 = EDGE_CURVE ( 'NONE', #119, #75, #69, .T. ) ;
#26 = VECTOR ( 'NONE', #112, 1000.000000000000000 ) ;
#27 = PRODUCT_RELATED_PRODUCT_CATEGORY ( 'part', '', ( #161 ) ) ;
#28 = EDGE_CURVE ( 'NONE', #61, #181, #64, .T. ) ;
#29 = ORIENTED_EDGE ( 'NONE', *, *, #8, .F. ) ;
#30 = CARTESIAN_POINT ( 'NONE',  ( 500.0000000000000000, -250.0000000000000000, 4.000000000000000000 ) ) ;
#31 = CARTESIAN_POINT ( 'NONE',  ( -500.0000000000000000, 250.0000000000000000, 4.000000000000000000 ) ) ;
#32 = FACE_OUTER_BOUND ( 'NONE', #7, .T. ) ;
#33 = VERTEX_POINT ( 'NONE', #67 ) ;
#34 = DIRECTION ( 'NONE',  ( 0.0000000000000000000, -1.000000000000000000, -0.0000000000000000000 ) ) ;
#35 = ADVANCED_FACE ( 'NONE', ( #146 ), #137, .F. ) ;
#36 = DIRECTION ( 'NONE',  ( -1.000000000000000000, -0.0000000000000000000, -0.0000000000000000000 ) ) ;
#37 = FACE_OUTER_BOUND ( 'NONE', #102, .T. ) ;
#38 = CARTESIAN_POINT ( 'NONE',  ( 500.0000000000000000, -250.0000000000000000, 0.0000000000000000000 ) ) ;
#39 = PRODUCT_DEFINITION_FORMATION_WITH_SPECIFIED_SOURCE ( 'ANY', '', #161, .NOT_KNOWN. ) ;
#40 = DIRECTION ( 'NONE',  ( 0.0000000000000000000, 0.0000000000000000000, -1.000000000000000000 ) ) ;
#41 = STYLED_ITEM ( 'NONE', ( #45 ), #124 ) ;
#42 = EDGE_CURVE ( 'NONE', #61, #143, #196, .T. ) ;
#43 = CARTESIAN_POINT ( 'NONE',  ( 500.0000000000000000, -250.0000000000000000, 4.000000000000000000 ) ) ;
#44 = EDGE_LOOP ( 'NONE', ( #80, #131, #182, #116 ) ) ;
#45 = PRESENTATION_STYLE_ASSIGNMENT (( #188 ) ) ;
#46 = VECTOR ( 'NONE', #1, 1000.000000000000000 ) ;
#47 = ORIENTED_EDGE ( 'NONE', *, *, #6, .T. ) ;
#48 = SURFACE_STYLE_FILL_AREA ( #103 ) ;
#49 = CARTESIAN_POINT ( 'NONE',  ( -500.0000000000000000, 250.0000000000000000, 4.000000000000000000 ) ) ;
#50 = PRODUCT_DEFINITION_SHAPE ( 'NONE', 'NONE',  #178 ) ;
#51 = PLANE ( 'NONE',  #168 ) ;
#52 = VECTOR ( 'NONE', #34, 1000.000000000000000 ) ;
#53 = MECHANICAL_DESIGN_GEOMETRIC_PRESENTATION_REPRESENTATION (  '', ( #41 ), #97 ) ;
#54 = ORIENTED_EDGE ( 'NONE', *, *, #18, .T. ) ;
#55 = CARTESIAN_POINT ( 'NONE',  ( 500.0000000000000000, 250.0000000000000000, 0.0000000000000000000 ) ) ;
#56 = LINE ( 'NONE', #19, #46 ) ;
#57 = FILL_AREA_STYLE ('',( #107 ) ) ;
#58 = ADVANCED_FACE ( 'NONE', ( #110 ), #175, .F. ) ;
#59 = SHAPE_DEFINITION_REPRESENTATION ( #50, #98 ) ;
#60 = ORIENTED_EDGE ( 'NONE', *, *, #121, .T. ) ;
#61 = VERTEX_POINT ( 'NONE', #115 ) ;
#62 = AXIS2_PLACEMENT_3D ( 'NONE', #16, #169, #3 ) ;
#63 = VECTOR ( 'NONE', #201, 1000.000000000000000 ) ;
#64 = LINE ( 'NONE', #81, #179 ) ;
#65 = DIRECTION ( 'NONE',  ( -0.0000000000000000000, 1.000000000000000000, 0.0000000000000000000 ) ) ;
#66 = ORIENTED_EDGE ( 'NONE', *, *, #132, .T. ) ;
#67 = CARTESIAN_POINT ( 'NONE',  ( -500.0000000000000000, -250.0000000000000000, 4.000000000000000000 ) ) ;
#68 = COLOUR_RGB ( '',0.7529411764705882200, 0.7529411764705882200, 0.7529411764705882200 ) ;
#69 = LINE ( 'NONE', #99, #24 ) ;
#70 = ADVANCED_FACE ( 'NONE', ( #32 ), #141, .T. ) ;
#71 =( LENGTH_UNIT ( ) NAMED_UNIT ( * ) SI_UNIT ( .MILLI., .METRE. ) );
#72 = DIRECTION ( 'NONE',  ( -1.000000000000000000, -0.0000000000000000000, 0.0000000000000000000 ) ) ;
#73 = LINE ( 'NONE', #200, #139 ) ;
#74 = SURFACE_SIDE_STYLE ('',( #123 ) ) ;
#75 = VERTEX_POINT ( 'NONE', #55 ) ;
#76 = APPLICATION_CONTEXT ( 'automotive_design' ) ;
#77 = ORIENTED_EDGE ( 'NONE', *, *, #132, .F. ) ;
#78 = EDGE_CURVE ( 'NONE', #96, #181, #95, .T. ) ;
#79 = AXIS2_PLACEMENT_3D ( 'NONE', #43, #22, #91 ) ;
#80 = ORIENTED_EDGE ( 'NONE', *, *, #183, .F. ) ;
#81 = CARTESIAN_POINT ( 'NONE',  ( -500.0000000000000000, 250.0000000000000000, 4.000000000000000000 ) ) ;
#82 = LINE ( 'NONE', #140, #158 ) ;
#83 = AXIS2_PLACEMENT_3D ( 'NONE', #186, #85, #154 ) ;
#84 = CARTESIAN_POINT ( 'NONE',  ( 500.0000000000000000, 250.0000000000000000, 4.000000000000000000 ) ) ;
#85 = DIRECTION ( 'NONE',  ( 0.0000000000000000000, 0.0000000000000000000, 1.000000000000000000 ) ) ;
#86 = ADVANCED_FACE ( 'NONE', ( #23 ), #17, .F. ) ;
#87 = LINE ( 'NONE', #170, #63 ) ;
#88 =( NAMED_UNIT ( * ) SI_UNIT ( $, .STERADIAN. ) SOLID_ANGLE_UNIT ( ) );
#89 = UNCERTAINTY_MEASURE_WITH_UNIT (LENGTH_MEASURE( 1.000000000000000100E-005 ), #71, 'distance_accuracy_value', 'NONE');
#90 = ADVANCED_FACE ( 'NONE', ( #149 ), #51, .F. ) ;
#91 = DIRECTION ( 'NONE',  ( 0.0000000000000000000, 0.0000000000000000000, 1.000000000000000000 ) ) ;
#92 = AXIS2_PLACEMENT_3D ( 'NONE', #13, #118, #159 ) ;
#93 = UNCERTAINTY_MEASURE_WITH_UNIT (LENGTH_MEASURE( 1.000000000000000100E-005 ), #176, 'distance_accuracy_value', 'NONE');
#94 = ORIENTED_EDGE ( 'NONE', *, *, #185, .F. ) ;
#95 = LINE ( 'NONE', #130, #108 ) ;
#96 = VERTEX_POINT ( 'NONE', #153 ) ;
#97 =( GEOMETRIC_REPRESENTATION_CONTEXT ( 3 ) GLOBAL_UNCERTAINTY_ASSIGNED_CONTEXT ( ( #89 ) ) GLOBAL_UNIT_ASSIGNED_CONTEXT ( ( #71, #202, #88 ) ) REPRESENTATION_CONTEXT ( 'NONE', 'WORKASPACE' ) );
#98 = ADVANCED_BREP_SHAPE_REPRESENTATION ( '6520148_CNAJF00', ( #124, #92 ), #111 ) ;
#99 = CARTESIAN_POINT ( 'NONE',  ( 500.0000000000000000, -250.0000000000000000, 0.0000000000000000000 ) ) ;
#100 = DIRECTION ( 'NONE',  ( 0.0000000000000000000, -0.0000000000000000000, -1.000000000000000000 ) ) ;
#101 = DIRECTION ( 'NONE',  ( 0.0000000000000000000, 1.000000000000000000, 0.0000000000000000000 ) ) ;
#102 = EDGE_LOOP ( 'NONE', ( #60, #29, #150, #164 ) ) ;
#103 = FILL_AREA_STYLE ('',( #173 ) ) ;
#104 = CARTESIAN_POINT ( 'NONE',  ( -500.0000000000000000, -250.0000000000000000, 4.000000000000000000 ) ) ;
#105 = DIRECTION ( 'NONE',  ( 1.000000000000000000, 0.0000000000000000000, -0.0000000000000000000 ) ) ;
#106 = ORIENTED_EDGE ( 'NONE', *, *, #183, .T. ) ;
#107 = FILL_AREA_STYLE_COLOUR ( '', #68 ) ;
#108 = VECTOR ( 'NONE', #36, 1000.000000000000000 ) ;
#109 = LINE ( 'NONE', #30, #26 ) ;
#110 = FACE_OUTER_BOUND ( 'NONE', #20, .T. ) ;
#111 =( GEOMETRIC_REPRESENTATION_CONTEXT ( 3 ) GLOBAL_UNCERTAINTY_ASSIGNED_CONTEXT ( ( #93 ) ) GLOBAL_UNIT_ASSIGNED_CONTEXT ( ( #176, #21, #142 ) ) REPRESENTATION_CONTEXT ( 'NONE', 'WORKASPACE' ) );
#112 = DIRECTION ( 'NONE',  ( 0.0000000000000000000, 1.000000000000000000, -0.0000000000000000000 ) ) ;
#113 = ORIENTED_EDGE ( 'NONE', *, *, #42, .T. ) ;
#114 = DIRECTION ( 'NONE',  ( 1.000000000000000000, 0.0000000000000000000, 0.0000000000000000000 ) ) ;
#115 = CARTESIAN_POINT ( 'NONE',  ( -500.0000000000000000, 250.0000000000000000, 0.0000000000000000000 ) ) ;
#116 = ORIENTED_EDGE ( 'NONE', *, *, #42, .F. ) ;
#117 = CARTESIAN_POINT ( 'NONE',  ( -500.0000000000000000, -250.0000000000000000, 0.0000000000000000000 ) ) ;
#118 = DIRECTION ( 'NONE',  ( 0.0000000000000000000, 0.0000000000000000000, 1.000000000000000000 ) ) ;
#119 = VERTEX_POINT ( 'NONE', #38 ) ;
#120 = APPLICATION_CONTEXT ( 'automotive_design' ) ;
#121 = EDGE_CURVE ( 'NONE', #75, #96, #56, .T. ) ;
#122 = ORIENTED_EDGE ( 'NONE', *, *, #78, .T. ) ;
#123 = SURFACE_STYLE_FILL_AREA ( #57 ) ;
#124 = MANIFOLD_SOLID_BREP ( 'Importiert1', #184 ) ;
#125 = MECHANICAL_DESIGN_GEOMETRIC_PRESENTATION_REPRESENTATION (  '', ( #197 ), #174 ) ;
#126 = AXIS2_PLACEMENT_3D ( 'NONE', #84, #129, #100 ) ;
#127 = LINE ( 'NONE', #191, #177 ) ;
#128 = SURFACE_SIDE_STYLE ('',( #48 ) ) ;
#129 = DIRECTION ( 'NONE',  ( 0.0000000000000000000, -1.000000000000000000, 0.0000000000000000000 ) ) ;
#130 = CARTESIAN_POINT ( 'NONE',  ( 500.0000000000000000, 250.0000000000000000, 4.000000000000000000 ) ) ;
#131 = ORIENTED_EDGE ( 'NONE', *, *, #25, .F. ) ;
#132 = EDGE_CURVE ( 'NONE', #33, #195, #166, .T. ) ;
#133 =( NAMED_UNIT ( * ) SI_UNIT ( $, .STERADIAN. ) SOLID_ANGLE_UNIT ( ) );
#134 = APPLICATION_PROTOCOL_DEFINITION ( 'draft international standard', 'automotive_design', 1998, #76 ) ;
#135 = ORIENTED_EDGE ( 'NONE', *, *, #78, .F. ) ;
#136 = ORIENTED_EDGE ( 'NONE', *, *, #121, .F. ) ;
#137 = PLANE ( 'NONE',  #144 ) ;
#138 = EDGE_CURVE ( 'NONE', #119, #195, #87, .T. ) ;
#139 = VECTOR ( 'NONE', #165, 1000.000000000000000 ) ;
#140 = CARTESIAN_POINT ( 'NONE',  ( -500.0000000000000000, 250.0000000000000000, 0.0000000000000000000 ) ) ;
#141 = PLANE ( 'NONE',  #62 ) ;
#142 =( NAMED_UNIT ( * ) SI_UNIT ( $, .STERADIAN. ) SOLID_ANGLE_UNIT ( ) );
#143 = VERTEX_POINT ( 'NONE', #117 ) ;
#144 = AXIS2_PLACEMENT_3D ( 'NONE', #189, #101, #2 ) ;
#145 =( NAMED_UNIT ( * ) PLANE_ANGLE_UNIT ( ) SI_UNIT ( $, .RADIAN. ) );
#146 = FACE_OUTER_BOUND ( 'NONE', #172, .T. ) ;
#147 = ORIENTED_EDGE ( 'NONE', *, *, #185, .T. ) ;
#148 = VECTOR ( 'NONE', #151, 1000.000000000000000 ) ;
#149 = FACE_OUTER_BOUND ( 'NONE', #14, .T. ) ;
#150 = ORIENTED_EDGE ( 'NONE', *, *, #138, .F. ) ;
#151 = DIRECTION ( 'NONE',  ( 1.000000000000000000, 0.0000000000000000000, -0.0000000000000000000 ) ) ;
#152 = DIRECTION ( 'NONE',  ( 0.0000000000000000000, 0.0000000000000000000, -1.000000000000000000 ) ) ;
#153 = CARTESIAN_POINT ( 'NONE',  ( 500.0000000000000000, 250.0000000000000000, 4.000000000000000000 ) ) ;
#154 = DIRECTION ( 'NONE',  ( 1.000000000000000000, 0.0000000000000000000, -0.0000000000000000000 ) ) ;
#155 = ORIENTED_EDGE ( 'NONE', *, *, #28, .T. ) ;
#156 = PRODUCT_CONTEXT ( 'NONE', #76, 'mechanical' ) ;
#157 = SURFACE_STYLE_USAGE ( .BOTH. , #74 ) ;
#158 = VECTOR ( 'NONE', #72, 1000.000000000000000 ) ;
#159 = DIRECTION ( 'NONE',  ( 1.000000000000000000, 0.0000000000000000000, 0.0000000000000000000 ) ) ;
#160 = ORIENTED_EDGE ( 'NONE', *, *, #6, .F. ) ;
#161 = PRODUCT ( '6520148_CNAJF00', '6520148_CNAJF00', '', ( #156 ) ) ;
#162 = PRESENTATION_LAYER_ASSIGNMENT (  '', '', ( #197 ) ) ;
#163 = COLOUR_RGB ( '',1.000000000000000000, 1.000000000000000000, 1.000000000000000000 ) ;
#164 = ORIENTED_EDGE ( 'NONE', *, *, #25, .T. ) ;
#165 = DIRECTION ( 'NONE',  ( 0.0000000000000000000, -1.000000000000000000, -0.0000000000000000000 ) ) ;
#166 = LINE ( 'NONE', #104, #187 ) ;
#167 = CARTESIAN_POINT ( 'NONE',  ( -500.0000000000000000, -250.0000000000000000, 0.0000000000000000000 ) ) ;
#168 = AXIS2_PLACEMENT_3D ( 'NONE', #31, #114, #152 ) ;
#169 = DIRECTION ( 'NONE',  ( 0.0000000000000000000, 0.0000000000000000000, 1.000000000000000000 ) ) ;
#170 = CARTESIAN_POINT ( 'NONE',  ( 500.0000000000000000, -250.0000000000000000, 4.000000000000000000 ) ) ;
#171 = CARTESIAN_POINT ( 'NONE',  ( -500.0000000000000000, -250.0000000000000000, 0.0000000000000000000 ) ) ;
#172 = EDGE_LOOP ( 'NONE', ( #192, #77, #147, #54 ) ) ;
#173 = FILL_AREA_STYLE_COLOUR ( '', #163 ) ;
#174 =( GEOMETRIC_REPRESENTATION_CONTEXT ( 3 ) GLOBAL_UNCERTAINTY_ASSIGNED_CONTEXT ( ( #180 ) ) GLOBAL_UNIT_ASSIGNED_CONTEXT ( ( #194, #145, #133 ) ) REPRESENTATION_CONTEXT ( 'NONE', 'WORKASPACE' ) );
#175 = PLANE ( 'NONE',  #126 ) ;
#176 =( LENGTH_UNIT ( ) NAMED_UNIT ( * ) SI_UNIT ( .MILLI., .METRE. ) );
#177 = VECTOR ( 'NONE', #40, 1000.000000000000000 ) ;
#178 = PRODUCT_DEFINITION ( 'UNKNOWN', '', #39, #9 ) ;
#179 = VECTOR ( 'NONE', #12, 1000.000000000000000 ) ;
#180 = UNCERTAINTY_MEASURE_WITH_UNIT (LENGTH_MEASURE( 1.000000000000000100E-005 ), #194, 'distance_accuracy_value', 'NONE');
#181 = VERTEX_POINT ( 'NONE', #49 ) ;
#182 = ORIENTED_EDGE ( 'NONE', *, *, #18, .F. ) ;
#183 = EDGE_CURVE ( 'NONE', #75, #61, #82, .T. ) ;
#184 = CLOSED_SHELL ( 'NONE', ( #86, #90, #58, #193, #35, #70 ) ) ;
#185 = EDGE_CURVE ( 'NONE', #33, #143, #127, .T. ) ;
#186 = CARTESIAN_POINT ( 'NONE',  ( -500.0000000000000000, -250.0000000000000000, 0.0000000000000000000 ) ) ;
#187 = VECTOR ( 'NONE', #105, 1000.000000000000000 ) ;
#188 = SURFACE_STYLE_USAGE ( .BOTH. , #128 ) ;
#189 = CARTESIAN_POINT ( 'NONE',  ( -500.0000000000000000, -250.0000000000000000, 4.000000000000000000 ) ) ;
#190 = CARTESIAN_POINT ( 'NONE',  ( 500.0000000000000000, -250.0000000000000000, 4.000000000000000000 ) ) ;
#191 = CARTESIAN_POINT ( 'NONE',  ( -500.0000000000000000, -250.0000000000000000, 4.000000000000000000 ) ) ;
#192 = ORIENTED_EDGE ( 'NONE', *, *, #138, .T. ) ;
#193 = ADVANCED_FACE ( 'NONE', ( #37 ), #4, .F. ) ;
#194 =( LENGTH_UNIT ( ) NAMED_UNIT ( * ) SI_UNIT ( .MILLI., .METRE. ) );
#195 = VERTEX_POINT ( 'NONE', #190 ) ;
#196 = LINE ( 'NONE', #171, #52 ) ;
#197 = STYLED_ITEM ( 'NONE', ( #10 ), #98 ) ;
#198 = ORIENTED_EDGE ( 'NONE', *, *, #28, .F. ) ;
#199 = ORIENTED_EDGE ( 'NONE', *, *, #8, .T. ) ;
#200 = CARTESIAN_POINT ( 'NONE',  ( -500.0000000000000000, 250.0000000000000000, 4.000000000000000000 ) ) ;
#201 = DIRECTION ( 'NONE',  ( 0.0000000000000000000, 0.0000000000000000000, 1.000000000000000000 ) ) ;
#202 =( NAMED_UNIT ( * ) PLANE_ANGLE_UNIT ( ) SI_UNIT ( $, .RADIAN. ) );
ENDSEC;
END-ISO-10303-21;
