ISO-10303-21;
HEADER;
FILE_DESCRIPTION (( 'STEP AP214' ),
    '1' );
FILE_NAME ('6520146',
    '2019-02-01T12:50:03',
    ( '' ),
    ('JUGARD+KÜNSTNER GmbH'),
    'SwSTEP 2.0',
    'SolidWorks 2017',
    '' );
FILE_SCHEMA (( 'AUTOMOTIVE_DESIGN' ));
ENDSEC;

DATA;
#1 = VECTOR ( 'NONE', #34, 1000.000000000000000 ) ;
#2 = ORIENTED_EDGE ( 'NONE', *, *, #33, .F. ) ;
#3 = STYLED_ITEM ( 'NONE', ( #36 ), #190 ) ;
#4 = VECTOR ( 'NONE', #7, 1000.000000000000000 ) ;
#5 = ORIENTED_EDGE ( 'NONE', *, *, #132, .T. ) ;
#6 = FACE_OUTER_BOUND ( 'NONE', #118, .T. ) ;
#7 = DIRECTION ( 'NONE',  ( 0.0000000000000000000, 0.0000000000000000000, 1.000000000000000000 ) ) ;
#8 = CARTESIAN_POINT ( 'NONE',  ( 500.0000000000000000, -250.0000000000000000, 3.000000000000000000 ) ) ;
#9 = CARTESIAN_POINT ( 'NONE',  ( -500.0000000000000000, -250.0000000000000000, 3.000000000000000000 ) ) ;
#10 = ORIENTED_EDGE ( 'NONE', *, *, #75, .T. ) ;
#11 = CARTESIAN_POINT ( 'NONE',  ( -500.0000000000000000, -250.0000000000000000, 0.0000000000000000000 ) ) ;
#12 = DIRECTION ( 'NONE',  ( 0.0000000000000000000, -0.0000000000000000000, -1.000000000000000000 ) ) ;
#13 =( LENGTH_UNIT ( ) NAMED_UNIT ( * ) SI_UNIT ( .MILLI., .METRE. ) );
#14 = ORIENTED_EDGE ( 'NONE', *, *, #91, .T. ) ;
#15 =( NAMED_UNIT ( * ) SI_UNIT ( $, .STERADIAN. ) SOLID_ANGLE_UNIT ( ) );
#16 = PRESENTATION_LAYER_ASSIGNMENT (  '', '', ( #3 ) ) ;
#17 = DIRECTION ( 'NONE',  ( 1.000000000000000000, 0.0000000000000000000, -0.0000000000000000000 ) ) ;
#18 = SURFACE_SIDE_STYLE ('',( #139 ) ) ;
#19 = FACE_OUTER_BOUND ( 'NONE', #100, .T. ) ;
#20 = PRESENTATION_STYLE_ASSIGNMENT (( #171 ) ) ;
#21 = VERTEX_POINT ( 'NONE', #193 ) ;
#22 = UNCERTAINTY_MEASURE_WITH_UNIT (LENGTH_MEASURE( 1.000000000000000100E-005 ), #138, 'distance_accuracy_value', 'NONE');
#23 = LINE ( 'NONE', #164, #52 ) ;
#24 = PRODUCT_DEFINITION_CONTEXT ( 'detailed design', #197, 'design' ) ;
#25 = VERTEX_POINT ( 'NONE', #94 ) ;
#26 = CARTESIAN_POINT ( 'NONE',  ( -500.0000000000000000, -250.0000000000000000, 3.000000000000000000 ) ) ;
#27 =( GEOMETRIC_REPRESENTATION_CONTEXT ( 3 ) GLOBAL_UNCERTAINTY_ASSIGNED_CONTEXT ( ( #114 ) ) GLOBAL_UNIT_ASSIGNED_CONTEXT ( ( #13, #198, #86 ) ) REPRESENTATION_CONTEXT ( 'NONE', 'WORKASPACE' ) );
#28 = VECTOR ( 'NONE', #196, 1000.000000000000000 ) ;
#29 = DIRECTION ( 'NONE',  ( 0.0000000000000000000, -1.000000000000000000, -0.0000000000000000000 ) ) ;
#30 = DIRECTION ( 'NONE',  ( 0.0000000000000000000, 0.0000000000000000000, -1.000000000000000000 ) ) ;
#31 = DIRECTION ( 'NONE',  ( -1.000000000000000000, 0.0000000000000000000, 0.0000000000000000000 ) ) ;
#32 = DIRECTION ( 'NONE',  ( 0.0000000000000000000, -0.0000000000000000000, 1.000000000000000000 ) ) ;
#33 = EDGE_CURVE ( 'NONE', #62, #113, #177, .T. ) ;
#34 = DIRECTION ( 'NONE',  ( -1.000000000000000000, -0.0000000000000000000, 0.0000000000000000000 ) ) ;
#35 = APPLICATION_PROTOCOL_DEFINITION ( 'draft international standard', 'automotive_design', 1998, #197 ) ;
#36 = PRESENTATION_STYLE_ASSIGNMENT (( #124 ) ) ;
#37 = PLANE ( 'NONE',  #156 ) ;
#38 = ORIENTED_EDGE ( 'NONE', *, *, #58, .T. ) ;
#39 = APPLICATION_PROTOCOL_DEFINITION ( 'draft international standard', 'automotive_design', 1998, #136 ) ;
#40 = VECTOR ( 'NONE', #29, 1000.000000000000000 ) ;
#41 = EDGE_LOOP ( 'NONE', ( #129, #83, #105, #194 ) ) ;
#42 = ADVANCED_BREP_SHAPE_REPRESENTATION ( '6520146_CNAJF00', ( #190, #155 ), #67 ) ;
#43 = EDGE_LOOP ( 'NONE', ( #14, #2, #137, #69 ) ) ;
#44 = PLANE ( 'NONE',  #184 ) ;
#45 = ADVANCED_FACE ( 'NONE', ( #97 ), #150, .F. ) ;
#46 = DIRECTION ( 'NONE',  ( -0.0000000000000000000, 0.0000000000000000000, 1.000000000000000000 ) ) ;
#47 = PRODUCT ( '6520146_CNAJF00', '6520146_CNAJF00', '', ( #109 ) ) ;
#48 = CARTESIAN_POINT ( 'NONE',  ( -500.0000000000000000, 250.0000000000000000, 3.000000000000000000 ) ) ;
#49 = LINE ( 'NONE', #122, #172 ) ;
#50 = ORIENTED_EDGE ( 'NONE', *, *, #71, .F. ) ;
#51 = CARTESIAN_POINT ( 'NONE',  ( -500.0000000000000000, -250.0000000000000000, 0.0000000000000000000 ) ) ;
#52 = VECTOR ( 'NONE', #46, 1000.000000000000000 ) ;
#53 = ORIENTED_EDGE ( 'NONE', *, *, #153, .T. ) ;
#54 = EDGE_CURVE ( 'NONE', #175, #62, #92, .T. ) ;
#55 = FILL_AREA_STYLE ('',( #170 ) ) ;
#56 = SURFACE_STYLE_FILL_AREA ( #55 ) ;
#57 = STYLED_ITEM ( 'NONE', ( #20 ), #42 ) ;
#58 = EDGE_CURVE ( 'NONE', #159, #140, #169, .T. ) ;
#59 = VECTOR ( 'NONE', #70, 1000.000000000000000 ) ;
#60 =( GEOMETRIC_REPRESENTATION_CONTEXT ( 3 ) GLOBAL_UNCERTAINTY_ASSIGNED_CONTEXT ( ( #115 ) ) GLOBAL_UNIT_ASSIGNED_CONTEXT ( ( #183, #199, #185 ) ) REPRESENTATION_CONTEXT ( 'NONE', 'WORKASPACE' ) );
#61 = VECTOR ( 'NONE', #81, 1000.000000000000000 ) ;
#62 = VERTEX_POINT ( 'NONE', #104 ) ;
#63 = ORIENTED_EDGE ( 'NONE', *, *, #132, .F. ) ;
#64 = ADVANCED_FACE ( 'NONE', ( #126 ), #120, .F. ) ;
#65 = CARTESIAN_POINT ( 'NONE',  ( 500.0000000000000000, -250.0000000000000000, 3.000000000000000000 ) ) ;
#66 = PLANE ( 'NONE',  #142 ) ;
#67 =( GEOMETRIC_REPRESENTATION_CONTEXT ( 3 ) GLOBAL_UNCERTAINTY_ASSIGNED_CONTEXT ( ( #22 ) ) GLOBAL_UNIT_ASSIGNED_CONTEXT ( ( #138, #98, #15 ) ) REPRESENTATION_CONTEXT ( 'NONE', 'WORKASPACE' ) );
#68 = DIRECTION ( 'NONE',  ( 1.000000000000000000, 0.0000000000000000000, -0.0000000000000000000 ) ) ;
#69 = ORIENTED_EDGE ( 'NONE', *, *, #189, .T. ) ;
#70 = DIRECTION ( 'NONE',  ( 0.0000000000000000000, 0.0000000000000000000, -1.000000000000000000 ) ) ;
#71 = EDGE_CURVE ( 'NONE', #21, #175, #103, .T. ) ;
#72 = LINE ( 'NONE', #125, #123 ) ;
#73 = DIRECTION ( 'NONE',  ( -0.0000000000000000000, 1.000000000000000000, 0.0000000000000000000 ) ) ;
#74 = ORIENTED_EDGE ( 'NONE', *, *, #33, .T. ) ;
#75 = EDGE_CURVE ( 'NONE', #113, #21, #117, .T. ) ;
#76 = ADVANCED_FACE ( 'NONE', ( #78 ), #106, .F. ) ;
#77 = CARTESIAN_POINT ( 'NONE',  ( -500.0000000000000000, -250.0000000000000000, 3.000000000000000000 ) ) ;
#78 = FACE_OUTER_BOUND ( 'NONE', #93, .T. ) ;
#79 = ORIENTED_EDGE ( 'NONE', *, *, #202, .T. ) ;
#80 = CARTESIAN_POINT ( 'NONE',  ( -500.0000000000000000, 250.0000000000000000, 0.0000000000000000000 ) ) ;
#81 = DIRECTION ( 'NONE',  ( 0.0000000000000000000, 1.000000000000000000, -0.0000000000000000000 ) ) ;
#82 = DIRECTION ( 'NONE',  ( -0.0000000000000000000, -0.0000000000000000000, 1.000000000000000000 ) ) ;
#83 = ORIENTED_EDGE ( 'NONE', *, *, #202, .F. ) ;
#84 = SURFACE_SIDE_STYLE ('',( #56 ) ) ;
#85 = FILL_AREA_STYLE ('',( #167 ) ) ;
#86 =( NAMED_UNIT ( * ) SI_UNIT ( $, .STERADIAN. ) SOLID_ANGLE_UNIT ( ) );
#87 = ORIENTED_EDGE ( 'NONE', *, *, #54, .F. ) ;
#88 = LINE ( 'NONE', #176, #1 ) ;
#89 = EDGE_LOOP ( 'NONE', ( #110, #141, #187, #79 ) ) ;
#90 = CARTESIAN_POINT ( 'NONE',  ( 500.0000000000000000, 250.0000000000000000, 3.000000000000000000 ) ) ;
#91 = EDGE_CURVE ( 'NONE', #25, #113, #131, .T. ) ;
#92 = LINE ( 'NONE', #107, #40 ) ;
#93 = EDGE_LOOP ( 'NONE', ( #157, #87, #63, #38 ) ) ;
#94 = CARTESIAN_POINT ( 'NONE',  ( 500.0000000000000000, -250.0000000000000000, 0.0000000000000000000 ) ) ;
#95 = CARTESIAN_POINT ( 'NONE',  ( 500.0000000000000000, -250.0000000000000000, 3.000000000000000000 ) ) ;
#96 = CARTESIAN_POINT ( 'NONE',  ( 0.0000000000000000000, 0.0000000000000000000, 0.0000000000000000000 ) ) ;
#97 = FACE_OUTER_BOUND ( 'NONE', #43, .T. ) ;
#98 =( NAMED_UNIT ( * ) PLANE_ANGLE_UNIT ( ) SI_UNIT ( $, .RADIAN. ) );
#99 = DIRECTION ( 'NONE',  ( 0.0000000000000000000, 0.0000000000000000000, 1.000000000000000000 ) ) ;
#100 = EDGE_LOOP ( 'NONE', ( #10, #165, #191, #74 ) ) ;
#101 = EDGE_CURVE ( 'NONE', #152, #21, #23, .T. ) ;
#102 = LINE ( 'NONE', #9, #59 ) ;
#103 = LINE ( 'NONE', #90, #28 ) ;
#104 = CARTESIAN_POINT ( 'NONE',  ( -500.0000000000000000, -250.0000000000000000, 3.000000000000000000 ) ) ;
#105 = ORIENTED_EDGE ( 'NONE', *, *, #189, .F. ) ;
#106 = PLANE ( 'NONE',  #174 ) ;
#107 = CARTESIAN_POINT ( 'NONE',  ( -500.0000000000000000, 250.0000000000000000, 3.000000000000000000 ) ) ;
#108 = DIRECTION ( 'NONE',  ( 0.0000000000000000000, -1.000000000000000000, 0.0000000000000000000 ) ) ;
#109 = PRODUCT_CONTEXT ( 'NONE', #136, 'mechanical' ) ;
#110 = ORIENTED_EDGE ( 'NONE', *, *, #101, .T. ) ;
#111 = AXIS2_PLACEMENT_3D ( 'NONE', #77, #133, #32 ) ;
#112 = VECTOR ( 'NONE', #162, 1000.000000000000000 ) ;
#113 = VERTEX_POINT ( 'NONE', #95 ) ;
#114 = UNCERTAINTY_MEASURE_WITH_UNIT (LENGTH_MEASURE( 1.000000000000000100E-005 ), #13, 'distance_accuracy_value', 'NONE');
#115 = UNCERTAINTY_MEASURE_WITH_UNIT (LENGTH_MEASURE( 1.000000000000000100E-005 ), #183, 'distance_accuracy_value', 'NONE');
#116 = PRODUCT_RELATED_PRODUCT_CATEGORY ( 'part', '', ( #47 ) ) ;
#117 = LINE ( 'NONE', #8, #61 ) ;
#118 = EDGE_LOOP ( 'NONE', ( #5, #50, #148, #53 ) ) ;
#119 = CARTESIAN_POINT ( 'NONE',  ( 500.0000000000000000, 250.0000000000000000, 0.0000000000000000000 ) ) ;
#120 = PLANE ( 'NONE',  #143 ) ;
#121 = CARTESIAN_POINT ( 'NONE',  ( -500.0000000000000000, 250.0000000000000000, 3.000000000000000000 ) ) ;
#122 = CARTESIAN_POINT ( 'NONE',  ( -500.0000000000000000, -250.0000000000000000, 0.0000000000000000000 ) ) ;
#123 = VECTOR ( 'NONE', #73, 1000.000000000000000 ) ;
#124 = SURFACE_STYLE_USAGE ( .BOTH. , #18 ) ;
#125 = CARTESIAN_POINT ( 'NONE',  ( 500.0000000000000000, -250.0000000000000000, 0.0000000000000000000 ) ) ;
#126 = FACE_OUTER_BOUND ( 'NONE', #41, .T. ) ;
#127 = SHAPE_DEFINITION_REPRESENTATION ( #179, #42 ) ;
#128 = FACE_OUTER_BOUND ( 'NONE', #89, .T. ) ;
#129 = ORIENTED_EDGE ( 'NONE', *, *, #153, .F. ) ;
#130 = EDGE_CURVE ( 'NONE', #62, #140, #102, .T. ) ;
#131 = LINE ( 'NONE', #166, #4 ) ;
#132 = EDGE_CURVE ( 'NONE', #159, #175, #181, .T. ) ;
#133 = DIRECTION ( 'NONE',  ( 0.0000000000000000000, 1.000000000000000000, 0.0000000000000000000 ) ) ;
#134 = DIRECTION ( 'NONE',  ( 0.0000000000000000000, 0.0000000000000000000, 1.000000000000000000 ) ) ;
#135 = COLOUR_RGB ( '',0.7529411764705882200, 0.7529411764705882200, 0.7529411764705882200 ) ;
#136 = APPLICATION_CONTEXT ( 'automotive_design' ) ;
#137 = ORIENTED_EDGE ( 'NONE', *, *, #130, .T. ) ;
#138 =( LENGTH_UNIT ( ) NAMED_UNIT ( * ) SI_UNIT ( .MILLI., .METRE. ) );
#139 = SURFACE_STYLE_FILL_AREA ( #85 ) ;
#140 = VERTEX_POINT ( 'NONE', #51 ) ;
#141 = ORIENTED_EDGE ( 'NONE', *, *, #75, .F. ) ;
#142 = AXIS2_PLACEMENT_3D ( 'NONE', #180, #108, #12 ) ;
#143 = AXIS2_PLACEMENT_3D ( 'NONE', #161, #149, #68 ) ;
#144 = MECHANICAL_DESIGN_GEOMETRIC_PRESENTATION_REPRESENTATION (  '', ( #3 ), #27 ) ;
#145 = ADVANCED_FACE ( 'NONE', ( #6 ), #66, .F. ) ;
#146 = CARTESIAN_POINT ( 'NONE',  ( -500.0000000000000000, 250.0000000000000000, 3.000000000000000000 ) ) ;
#147 = VECTOR ( 'NONE', #195, 1000.000000000000000 ) ;
#148 = ORIENTED_EDGE ( 'NONE', *, *, #101, .F. ) ;
#149 = DIRECTION ( 'NONE',  ( 0.0000000000000000000, 0.0000000000000000000, 1.000000000000000000 ) ) ;
#150 = PLANE ( 'NONE',  #111 ) ;
#151 = ADVANCED_FACE ( 'NONE', ( #128 ), #44, .F. ) ;
#152 = VERTEX_POINT ( 'NONE', #119 ) ;
#153 = EDGE_CURVE ( 'NONE', #152, #159, #88, .T. ) ;
#154 = DIRECTION ( 'NONE',  ( 1.000000000000000000, 0.0000000000000000000, -0.0000000000000000000 ) ) ;
#155 = AXIS2_PLACEMENT_3D ( 'NONE', #96, #168, #182 ) ;
#156 = AXIS2_PLACEMENT_3D ( 'NONE', #201, #99, #17 ) ;
#157 = ORIENTED_EDGE ( 'NONE', *, *, #130, .F. ) ;
#158 = COLOUR_RGB ( '',1.000000000000000000, 1.000000000000000000, 1.000000000000000000 ) ;
#159 = VERTEX_POINT ( 'NONE', #80 ) ;
#160 = ADVANCED_FACE ( 'NONE', ( #19 ), #37, .T. ) ;
#161 = CARTESIAN_POINT ( 'NONE',  ( -500.0000000000000000, -250.0000000000000000, 0.0000000000000000000 ) ) ;
#162 = DIRECTION ( 'NONE',  ( 1.000000000000000000, 0.0000000000000000000, -0.0000000000000000000 ) ) ;
#163 = PRODUCT_DEFINITION ( 'UNKNOWN', '', #186, #24 ) ;
#164 = CARTESIAN_POINT ( 'NONE',  ( 500.0000000000000000, 250.0000000000000000, 3.000000000000000000 ) ) ;
#165 = ORIENTED_EDGE ( 'NONE', *, *, #71, .T. ) ;
#166 = CARTESIAN_POINT ( 'NONE',  ( 500.0000000000000000, -250.0000000000000000, 3.000000000000000000 ) ) ;
#167 = FILL_AREA_STYLE_COLOUR ( '', #158 ) ;
#168 = DIRECTION ( 'NONE',  ( 0.0000000000000000000, 0.0000000000000000000, 1.000000000000000000 ) ) ;
#169 = LINE ( 'NONE', #11, #147 ) ;
#170 = FILL_AREA_STYLE_COLOUR ( '', #135 ) ;
#171 = SURFACE_STYLE_USAGE ( .BOTH. , #84 ) ;
#172 = VECTOR ( 'NONE', #154, 1000.000000000000000 ) ;
#173 = MECHANICAL_DESIGN_GEOMETRIC_PRESENTATION_REPRESENTATION (  '', ( #57 ), #60 ) ;
#174 = AXIS2_PLACEMENT_3D ( 'NONE', #48, #178, #30 ) ;
#175 = VERTEX_POINT ( 'NONE', #146 ) ;
#176 = CARTESIAN_POINT ( 'NONE',  ( -500.0000000000000000, 250.0000000000000000, 0.0000000000000000000 ) ) ;
#177 = LINE ( 'NONE', #26, #112 ) ;
#178 = DIRECTION ( 'NONE',  ( 1.000000000000000000, 0.0000000000000000000, 0.0000000000000000000 ) ) ;
#179 = PRODUCT_DEFINITION_SHAPE ( 'NONE', 'NONE',  #163 ) ;
#180 = CARTESIAN_POINT ( 'NONE',  ( 500.0000000000000000, 250.0000000000000000, 3.000000000000000000 ) ) ;
#181 = LINE ( 'NONE', #121, #200 ) ;
#182 = DIRECTION ( 'NONE',  ( 1.000000000000000000, 0.0000000000000000000, 0.0000000000000000000 ) ) ;
#183 =( LENGTH_UNIT ( ) NAMED_UNIT ( * ) SI_UNIT ( .MILLI., .METRE. ) );
#184 = AXIS2_PLACEMENT_3D ( 'NONE', #65, #31, #134 ) ;
#185 =( NAMED_UNIT ( * ) SI_UNIT ( $, .STERADIAN. ) SOLID_ANGLE_UNIT ( ) );
#186 = PRODUCT_DEFINITION_FORMATION_WITH_SPECIFIED_SOURCE ( 'ANY', '', #47, .NOT_KNOWN. ) ;
#187 = ORIENTED_EDGE ( 'NONE', *, *, #91, .F. ) ;
#188 = CLOSED_SHELL ( 'NONE', ( #64, #76, #145, #151, #45, #160 ) ) ;
#189 = EDGE_CURVE ( 'NONE', #140, #25, #49, .T. ) ;
#190 = MANIFOLD_SOLID_BREP ( 'Importiert1', #188 ) ;
#191 = ORIENTED_EDGE ( 'NONE', *, *, #54, .T. ) ;
#192 = PRESENTATION_LAYER_ASSIGNMENT (  '', '', ( #57 ) ) ;
#193 = CARTESIAN_POINT ( 'NONE',  ( 500.0000000000000000, 250.0000000000000000, 3.000000000000000000 ) ) ;
#194 = ORIENTED_EDGE ( 'NONE', *, *, #58, .F. ) ;
#195 = DIRECTION ( 'NONE',  ( 0.0000000000000000000, -1.000000000000000000, -0.0000000000000000000 ) ) ;
#196 = DIRECTION ( 'NONE',  ( -1.000000000000000000, -0.0000000000000000000, -0.0000000000000000000 ) ) ;
#197 = APPLICATION_CONTEXT ( 'automotive_design' ) ;
#198 =( NAMED_UNIT ( * ) PLANE_ANGLE_UNIT ( ) SI_UNIT ( $, .RADIAN. ) );
#199 =( NAMED_UNIT ( * ) PLANE_ANGLE_UNIT ( ) SI_UNIT ( $, .RADIAN. ) );
#200 = VECTOR ( 'NONE', #82, 1000.000000000000000 ) ;
#201 = CARTESIAN_POINT ( 'NONE',  ( -500.0000000000000000, -250.0000000000000000, 3.000000000000000000 ) ) ;
#202 = EDGE_CURVE ( 'NONE', #25, #152, #72, .T. ) ;
ENDSEC;
END-ISO-10303-21;
