ISO-10303-21;
HEADER;
FILE_DESCRIPTION (( 'STEP AP214' ),
    '1' );
FILE_NAME ('6520133',
    '2019-02-01T12:50:21',
    ( '' ),
    ('JUGARD+KÜNSTNER GmbH'),
    'SwSTEP 2.0',
    'SolidWorks 2017',
    '' );
FILE_SCHEMA (( 'AUTOMOTIVE_DESIGN' ));
ENDSEC;

DATA;
#1 = CARTESIAN_POINT ( 'NONE',  ( -500.0000000000000000, -250.0000000000000000, 3.000000000000000000 ) ) ;
#2 = MANIFOLD_SOLID_BREP ( 'Importiert1', #154 ) ;
#3 = VECTOR ( 'NONE', #172, 1000.000000000000000 ) ;
#4 = STYLED_ITEM ( 'NONE', ( #70 ), #81 ) ;
#5 = ADVANCED_FACE ( 'NONE', ( #14 ), #42, .T. ) ;
#6 = VECTOR ( 'NONE', #144, 1000.000000000000000 ) ;
#7 = APPLICATION_CONTEXT ( 'automotive_design' ) ;
#8 = VECTOR ( 'NONE', #155, 1000.000000000000000 ) ;
#9 = AXIS2_PLACEMENT_3D ( 'NONE', #12, #159, #171 ) ;
#10 = ORIENTED_EDGE ( 'NONE', *, *, #178, .F. ) ;
#11 = DIRECTION ( 'NONE',  ( 0.0000000000000000000, 0.0000000000000000000, -1.000000000000000000 ) ) ;
#12 = CARTESIAN_POINT ( 'NONE',  ( 500.0000000000000000, 250.0000000000000000, 3.000000000000000000 ) ) ;
#13 = DIRECTION ( 'NONE',  ( -1.000000000000000000, 0.0000000000000000000, 0.0000000000000000000 ) ) ;
#14 = FACE_OUTER_BOUND ( 'NONE', #190, .T. ) ;
#15 = ORIENTED_EDGE ( 'NONE', *, *, #124, .F. ) ;
#16 =( GEOMETRIC_REPRESENTATION_CONTEXT ( 3 ) GLOBAL_UNCERTAINTY_ASSIGNED_CONTEXT ( ( #39 ) ) GLOBAL_UNIT_ASSIGNED_CONTEXT ( ( #101, #195, #194 ) ) REPRESENTATION_CONTEXT ( 'NONE', 'WORKASPACE' ) );
#17 = CARTESIAN_POINT ( 'NONE',  ( -500.0000000000000000, 250.0000000000000000, 3.000000000000000000 ) ) ;
#18 = DIRECTION ( 'NONE',  ( -1.000000000000000000, -0.0000000000000000000, 0.0000000000000000000 ) ) ;
#19 = FILL_AREA_STYLE ('',( #163 ) ) ;
#20 = EDGE_CURVE ( 'NONE', #108, #23, #153, .T. ) ;
#21 = SURFACE_STYLE_FILL_AREA ( #19 ) ;
#22 = FACE_OUTER_BOUND ( 'NONE', #73, .T. ) ;
#23 = VERTEX_POINT ( 'NONE', #24 ) ;
#24 = CARTESIAN_POINT ( 'NONE',  ( 500.0000000000000000, 250.0000000000000000, 0.0000000000000000000 ) ) ;
#25 = CARTESIAN_POINT ( 'NONE',  ( 500.0000000000000000, 250.0000000000000000, 3.000000000000000000 ) ) ;
#26 = VERTEX_POINT ( 'NONE', #128 ) ;
#27 = CARTESIAN_POINT ( 'NONE',  ( -500.0000000000000000, -250.0000000000000000, 3.000000000000000000 ) ) ;
#28 = PRESENTATION_STYLE_ASSIGNMENT (( #106 ) ) ;
#29 = EDGE_CURVE ( 'NONE', #23, #69, #199, .T. ) ;
#30 = DIRECTION ( 'NONE',  ( 0.0000000000000000000, -1.000000000000000000, -0.0000000000000000000 ) ) ;
#31 = MECHANICAL_DESIGN_GEOMETRIC_PRESENTATION_REPRESENTATION (  '', ( #48 ), #40 ) ;
#32 = LINE ( 'NONE', #58, #134 ) ;
#33 = ORIENTED_EDGE ( 'NONE', *, *, #142, .F. ) ;
#34 = LINE ( 'NONE', #78, #129 ) ;
#35 = DIRECTION ( 'NONE',  ( 1.000000000000000000, 0.0000000000000000000, 0.0000000000000000000 ) ) ;
#36 = SURFACE_SIDE_STYLE ('',( #21 ) ) ;
#37 = VECTOR ( 'NONE', #185, 1000.000000000000000 ) ;
#38 = ORIENTED_EDGE ( 'NONE', *, *, #169, .F. ) ;
#39 = UNCERTAINTY_MEASURE_WITH_UNIT (LENGTH_MEASURE( 1.000000000000000100E-005 ), #101, 'distance_accuracy_value', 'NONE');
#40 =( GEOMETRIC_REPRESENTATION_CONTEXT ( 3 ) GLOBAL_UNCERTAINTY_ASSIGNED_CONTEXT ( ( #84 ) ) GLOBAL_UNIT_ASSIGNED_CONTEXT ( ( #44, #56, #139 ) ) REPRESENTATION_CONTEXT ( 'NONE', 'WORKASPACE' ) );
#41 = ORIENTED_EDGE ( 'NONE', *, *, #197, .F. ) ;
#42 = PLANE ( 'NONE',  #76 ) ;
#43 = FACE_OUTER_BOUND ( 'NONE', #193, .T. ) ;
#44 =( LENGTH_UNIT ( ) NAMED_UNIT ( * ) SI_UNIT ( .MILLI., .METRE. ) );
#45 = DIRECTION ( 'NONE',  ( -1.000000000000000000, -0.0000000000000000000, -0.0000000000000000000 ) ) ;
#46 = EDGE_CURVE ( 'NONE', #200, #26, #122, .T. ) ;
#47 = LINE ( 'NONE', #141, #49 ) ;
#48 = STYLED_ITEM ( 'NONE', ( #28 ), #2 ) ;
#49 = VECTOR ( 'NONE', #156, 1000.000000000000000 ) ;
#50 = ORIENTED_EDGE ( 'NONE', *, *, #54, .F. ) ;
#51 = VECTOR ( 'NONE', #187, 1000.000000000000000 ) ;
#52 = PLANE ( 'NONE',  #87 ) ;
#53 = ORIENTED_EDGE ( 'NONE', *, *, #120, .T. ) ;
#54 = EDGE_CURVE ( 'NONE', #200, #104, #177, .T. ) ;
#55 = CARTESIAN_POINT ( 'NONE',  ( -500.0000000000000000, -250.0000000000000000, 0.0000000000000000000 ) ) ;
#56 =( NAMED_UNIT ( * ) PLANE_ANGLE_UNIT ( ) SI_UNIT ( $, .RADIAN. ) );
#57 = CARTESIAN_POINT ( 'NONE',  ( 500.0000000000000000, -250.0000000000000000, 0.0000000000000000000 ) ) ;
#58 = CARTESIAN_POINT ( 'NONE',  ( 500.0000000000000000, 250.0000000000000000, 3.000000000000000000 ) ) ;
#59 = ORIENTED_EDGE ( 'NONE', *, *, #142, .T. ) ;
#60 = PRESENTATION_LAYER_ASSIGNMENT (  '', '', ( #48 ) ) ;
#61 = CARTESIAN_POINT ( 'NONE',  ( 500.0000000000000000, -250.0000000000000000, 3.000000000000000000 ) ) ;
#62 = DIRECTION ( 'NONE',  ( 0.0000000000000000000, 1.000000000000000000, 0.0000000000000000000 ) ) ;
#63 = DIRECTION ( 'NONE',  ( 0.0000000000000000000, 1.000000000000000000, -0.0000000000000000000 ) ) ;
#64 = SHAPE_DEFINITION_REPRESENTATION ( #97, #81 ) ;
#65 = FACE_OUTER_BOUND ( 'NONE', #118, .T. ) ;
#66 = ADVANCED_FACE ( 'NONE', ( #22 ), #140, .F. ) ;
#67 = ORIENTED_EDGE ( 'NONE', *, *, #20, .T. ) ;
#68 = APPLICATION_PROTOCOL_DEFINITION ( 'draft international standard', 'automotive_design', 1998, #7 ) ;
#69 = VERTEX_POINT ( 'NONE', #25 ) ;
#70 = PRESENTATION_STYLE_ASSIGNMENT (( #135 ) ) ;
#71 = ORIENTED_EDGE ( 'NONE', *, *, #124, .T. ) ;
#72 = AXIS2_PLACEMENT_3D ( 'NONE', #168, #107, #11 ) ;
#73 = EDGE_LOOP ( 'NONE', ( #196, #10, #94, #123 ) ) ;
#74 = LINE ( 'NONE', #112, #161 ) ;
#75 = DIRECTION ( 'NONE',  ( 0.0000000000000000000, 0.0000000000000000000, 1.000000000000000000 ) ) ;
#76 = AXIS2_PLACEMENT_3D ( 'NONE', #111, #184, #126 ) ;
#77 = CARTESIAN_POINT ( 'NONE',  ( -500.0000000000000000, -250.0000000000000000, 3.000000000000000000 ) ) ;
#78 = CARTESIAN_POINT ( 'NONE',  ( -500.0000000000000000, 250.0000000000000000, 0.0000000000000000000 ) ) ;
#79 = PLANE ( 'NONE',  #191 ) ;
#80 = ADVANCED_FACE ( 'NONE', ( #162 ), #52, .F. ) ;
#81 = ADVANCED_BREP_SHAPE_REPRESENTATION ( '6520133_CNAJF00', ( #2, #158 ), #131 ) ;
#82 = COLOUR_RGB ( '',0.7529411764705882200, 0.7529411764705882200, 0.7529411764705882200 ) ;
#83 = EDGE_CURVE ( 'NONE', #108, #143, #47, .T. ) ;
#84 = UNCERTAINTY_MEASURE_WITH_UNIT (LENGTH_MEASURE( 1.000000000000000100E-005 ), #44, 'distance_accuracy_value', 'NONE');
#85 = ORIENTED_EDGE ( 'NONE', *, *, #29, .T. ) ;
#86 = CARTESIAN_POINT ( 'NONE',  ( 500.0000000000000000, 250.0000000000000000, 3.000000000000000000 ) ) ;
#87 = AXIS2_PLACEMENT_3D ( 'NONE', #170, #13, #88 ) ;
#88 = DIRECTION ( 'NONE',  ( 0.0000000000000000000, 0.0000000000000000000, 1.000000000000000000 ) ) ;
#89 = FACE_OUTER_BOUND ( 'NONE', #136, .T. ) ;
#90 = FILL_AREA_STYLE_COLOUR ( '', #182 ) ;
#91 = CARTESIAN_POINT ( 'NONE',  ( -500.0000000000000000, 250.0000000000000000, 3.000000000000000000 ) ) ;
#92 = PRODUCT ( '6520133_CNAJF00', '6520133_CNAJF00', '', ( #166 ) ) ;
#93 = CARTESIAN_POINT ( 'NONE',  ( -500.0000000000000000, -250.0000000000000000, 0.0000000000000000000 ) ) ;
#94 = ORIENTED_EDGE ( 'NONE', *, *, #46, .F. ) ;
#95 = CARTESIAN_POINT ( 'NONE',  ( -500.0000000000000000, -250.0000000000000000, 3.000000000000000000 ) ) ;
#96 = DIRECTION ( 'NONE',  ( 1.000000000000000000, 0.0000000000000000000, -0.0000000000000000000 ) ) ;
#97 = PRODUCT_DEFINITION_SHAPE ( 'NONE', 'NONE',  #165 ) ;
#98 = ADVANCED_FACE ( 'NONE', ( #65 ), #110, .F. ) ;
#99 = ORIENTED_EDGE ( 'NONE', *, *, #83, .F. ) ;
#100 = APPLICATION_PROTOCOL_DEFINITION ( 'draft international standard', 'automotive_design', 1998, #152 ) ;
#101 =( LENGTH_UNIT ( ) NAMED_UNIT ( * ) SI_UNIT ( .MILLI., .METRE. ) );
#102 = ORIENTED_EDGE ( 'NONE', *, *, #178, .T. ) ;
#103 = LINE ( 'NONE', #27, #6 ) ;
#104 = VERTEX_POINT ( 'NONE', #93 ) ;
#105 = EDGE_CURVE ( 'NONE', #150, #104, #103, .T. ) ;
#106 = SURFACE_STYLE_USAGE ( .BOTH. , #109 ) ;
#107 = DIRECTION ( 'NONE',  ( 1.000000000000000000, 0.0000000000000000000, 0.0000000000000000000 ) ) ;
#108 = VERTEX_POINT ( 'NONE', #130 ) ;
#109 = SURFACE_SIDE_STYLE ('',( #132 ) ) ;
#110 = PLANE ( 'NONE',  #9 ) ;
#111 = CARTESIAN_POINT ( 'NONE',  ( -500.0000000000000000, -250.0000000000000000, 3.000000000000000000 ) ) ;
#112 = CARTESIAN_POINT ( 'NONE',  ( -500.0000000000000000, -250.0000000000000000, 0.0000000000000000000 ) ) ;
#113 = VECTOR ( 'NONE', #160, 1000.000000000000000 ) ;
#114 = ORIENTED_EDGE ( 'NONE', *, *, #20, .F. ) ;
#115 = DIRECTION ( 'NONE',  ( 1.000000000000000000, 0.0000000000000000000, -0.0000000000000000000 ) ) ;
#116 = ADVANCED_FACE ( 'NONE', ( #43 ), #201, .F. ) ;
#117 = MECHANICAL_DESIGN_GEOMETRIC_PRESENTATION_REPRESENTATION (  '', ( #4 ), #16 ) ;
#118 = EDGE_LOOP ( 'NONE', ( #147, #174, #119, #164 ) ) ;
#119 = ORIENTED_EDGE ( 'NONE', *, *, #29, .F. ) ;
#120 = EDGE_CURVE ( 'NONE', #69, #26, #32, .T. ) ;
#121 = DIRECTION ( 'NONE',  ( 0.0000000000000000000, 0.0000000000000000000, 1.000000000000000000 ) ) ;
#122 = LINE ( 'NONE', #91, #8 ) ;
#123 = ORIENTED_EDGE ( 'NONE', *, *, #54, .T. ) ;
#124 = EDGE_CURVE ( 'NONE', #150, #143, #125, .T. ) ;
#125 = LINE ( 'NONE', #1, #3 ) ;
#126 = DIRECTION ( 'NONE',  ( 1.000000000000000000, 0.0000000000000000000, -0.0000000000000000000 ) ) ;
#127 = EDGE_LOOP ( 'NONE', ( #85, #38, #99, #67 ) ) ;
#128 = CARTESIAN_POINT ( 'NONE',  ( -500.0000000000000000, 250.0000000000000000, 3.000000000000000000 ) ) ;
#129 = VECTOR ( 'NONE', #18, 1000.000000000000000 ) ;
#130 = CARTESIAN_POINT ( 'NONE',  ( 500.0000000000000000, -250.0000000000000000, 0.0000000000000000000 ) ) ;
#131 =( GEOMETRIC_REPRESENTATION_CONTEXT ( 3 ) GLOBAL_UNCERTAINTY_ASSIGNED_CONTEXT ( ( #183 ) ) GLOBAL_UNIT_ASSIGNED_CONTEXT ( ( #179, #181, #151 ) ) REPRESENTATION_CONTEXT ( 'NONE', 'WORKASPACE' ) );
#132 = SURFACE_STYLE_FILL_AREA ( #157 ) ;
#133 = CARTESIAN_POINT ( 'NONE',  ( 500.0000000000000000, -250.0000000000000000, 3.000000000000000000 ) ) ;
#134 = VECTOR ( 'NONE', #45, 1000.000000000000000 ) ;
#135 = SURFACE_STYLE_USAGE ( .BOTH. , #36 ) ;
#136 = EDGE_LOOP ( 'NONE', ( #189, #15, #137, #59 ) ) ;
#137 = ORIENTED_EDGE ( 'NONE', *, *, #105, .T. ) ;
#138 = PRESENTATION_LAYER_ASSIGNMENT (  '', '', ( #4 ) ) ;
#139 =( NAMED_UNIT ( * ) SI_UNIT ( $, .STERADIAN. ) SOLID_ANGLE_UNIT ( ) );
#140 = PLANE ( 'NONE',  #72 ) ;
#141 = CARTESIAN_POINT ( 'NONE',  ( 500.0000000000000000, -250.0000000000000000, 3.000000000000000000 ) ) ;
#142 = EDGE_CURVE ( 'NONE', #104, #108, #74, .T. ) ;
#143 = VERTEX_POINT ( 'NONE', #61 ) ;
#144 = DIRECTION ( 'NONE',  ( 0.0000000000000000000, 0.0000000000000000000, -1.000000000000000000 ) ) ;
#145 = CARTESIAN_POINT ( 'NONE',  ( 0.0000000000000000000, 0.0000000000000000000, 0.0000000000000000000 ) ) ;
#146 = VECTOR ( 'NONE', #63, 1000.000000000000000 ) ;
#147 = ORIENTED_EDGE ( 'NONE', *, *, #46, .T. ) ;
#148 = ADVANCED_FACE ( 'NONE', ( #89 ), #79, .F. ) ;
#149 = PRODUCT_DEFINITION_CONTEXT ( 'detailed design', #152, 'design' ) ;
#150 = VERTEX_POINT ( 'NONE', #77 ) ;
#151 =( NAMED_UNIT ( * ) SI_UNIT ( $, .STERADIAN. ) SOLID_ANGLE_UNIT ( ) );
#152 = APPLICATION_CONTEXT ( 'automotive_design' ) ;
#153 = LINE ( 'NONE', #57, #51 ) ;
#154 = CLOSED_SHELL ( 'NONE', ( #116, #66, #98, #80, #148, #5 ) ) ;
#155 = DIRECTION ( 'NONE',  ( -0.0000000000000000000, -0.0000000000000000000, 1.000000000000000000 ) ) ;
#156 = DIRECTION ( 'NONE',  ( 0.0000000000000000000, 0.0000000000000000000, 1.000000000000000000 ) ) ;
#157 = FILL_AREA_STYLE ('',( #90 ) ) ;
#158 = AXIS2_PLACEMENT_3D ( 'NONE', #145, #121, #35 ) ;
#159 = DIRECTION ( 'NONE',  ( 0.0000000000000000000, -1.000000000000000000, 0.0000000000000000000 ) ) ;
#160 = DIRECTION ( 'NONE',  ( -0.0000000000000000000, 0.0000000000000000000, 1.000000000000000000 ) ) ;
#161 = VECTOR ( 'NONE', #96, 1000.000000000000000 ) ;
#162 = FACE_OUTER_BOUND ( 'NONE', #127, .T. ) ;
#163 = FILL_AREA_STYLE_COLOUR ( '', #82 ) ;
#164 = ORIENTED_EDGE ( 'NONE', *, *, #197, .T. ) ;
#165 = PRODUCT_DEFINITION ( 'UNKNOWN', '', #175, #149 ) ;
#166 = PRODUCT_CONTEXT ( 'NONE', #7, 'mechanical' ) ;
#167 = ORIENTED_EDGE ( 'NONE', *, *, #169, .T. ) ;
#168 = CARTESIAN_POINT ( 'NONE',  ( -500.0000000000000000, 250.0000000000000000, 3.000000000000000000 ) ) ;
#169 = EDGE_CURVE ( 'NONE', #143, #69, #180, .T. ) ;
#170 = CARTESIAN_POINT ( 'NONE',  ( 500.0000000000000000, -250.0000000000000000, 3.000000000000000000 ) ) ;
#171 = DIRECTION ( 'NONE',  ( 0.0000000000000000000, -0.0000000000000000000, -1.000000000000000000 ) ) ;
#172 = DIRECTION ( 'NONE',  ( 1.000000000000000000, 0.0000000000000000000, -0.0000000000000000000 ) ) ;
#173 = VECTOR ( 'NONE', #30, 1000.000000000000000 ) ;
#174 = ORIENTED_EDGE ( 'NONE', *, *, #120, .F. ) ;
#175 = PRODUCT_DEFINITION_FORMATION_WITH_SPECIFIED_SOURCE ( 'ANY', '', #92, .NOT_KNOWN. ) ;
#176 = CARTESIAN_POINT ( 'NONE',  ( -500.0000000000000000, 250.0000000000000000, 0.0000000000000000000 ) ) ;
#177 = LINE ( 'NONE', #55, #37 ) ;
#178 = EDGE_CURVE ( 'NONE', #26, #150, #188, .T. ) ;
#179 =( LENGTH_UNIT ( ) NAMED_UNIT ( * ) SI_UNIT ( .MILLI., .METRE. ) );
#180 = LINE ( 'NONE', #133, #146 ) ;
#181 =( NAMED_UNIT ( * ) PLANE_ANGLE_UNIT ( ) SI_UNIT ( $, .RADIAN. ) );
#182 = COLOUR_RGB ( '',0.0000000000000000000, 0.5490196078431373000, 0.3294117647058823500 ) ;
#183 = UNCERTAINTY_MEASURE_WITH_UNIT (LENGTH_MEASURE( 1.000000000000000100E-005 ), #179, 'distance_accuracy_value', 'NONE');
#184 = DIRECTION ( 'NONE',  ( 0.0000000000000000000, 0.0000000000000000000, 1.000000000000000000 ) ) ;
#185 = DIRECTION ( 'NONE',  ( 0.0000000000000000000, -1.000000000000000000, -0.0000000000000000000 ) ) ;
#186 = PRODUCT_RELATED_PRODUCT_CATEGORY ( 'part', '', ( #92 ) ) ;
#187 = DIRECTION ( 'NONE',  ( -0.0000000000000000000, 1.000000000000000000, 0.0000000000000000000 ) ) ;
#188 = LINE ( 'NONE', #17, #173 ) ;
#189 = ORIENTED_EDGE ( 'NONE', *, *, #83, .T. ) ;
#190 = EDGE_LOOP ( 'NONE', ( #167, #53, #102, #71 ) ) ;
#191 = AXIS2_PLACEMENT_3D ( 'NONE', #95, #62, #192 ) ;
#192 = DIRECTION ( 'NONE',  ( 0.0000000000000000000, -0.0000000000000000000, 1.000000000000000000 ) ) ;
#193 = EDGE_LOOP ( 'NONE', ( #41, #114, #33, #50 ) ) ;
#194 =( NAMED_UNIT ( * ) SI_UNIT ( $, .STERADIAN. ) SOLID_ANGLE_UNIT ( ) );
#195 =( NAMED_UNIT ( * ) PLANE_ANGLE_UNIT ( ) SI_UNIT ( $, .RADIAN. ) );
#196 = ORIENTED_EDGE ( 'NONE', *, *, #105, .F. ) ;
#197 = EDGE_CURVE ( 'NONE', #23, #200, #34, .T. ) ;
#198 = AXIS2_PLACEMENT_3D ( 'NONE', #202, #75, #115 ) ;
#199 = LINE ( 'NONE', #86, #113 ) ;
#200 = VERTEX_POINT ( 'NONE', #176 ) ;
#201 = PLANE ( 'NONE',  #198 ) ;
#202 = CARTESIAN_POINT ( 'NONE',  ( -500.0000000000000000, -250.0000000000000000, 0.0000000000000000000 ) ) ;
ENDSEC;
END-ISO-10303-21;
