ISO-10303-21;
HEADER;
FILE_DESCRIPTION (( 'STEP AP214' ),
    '1' );
FILE_NAME ('6520102ST',
    '2019-02-01T12:50:19',
    ( '' ),
    ('JUGARD+KÜNSTNER GmbH'),
    'SwSTEP 2.0',
    'SolidWorks 2017',
    '' );
FILE_SCHEMA (( 'AUTOMOTIVE_DESIGN' ));
ENDSEC;

DATA;
#1 = APPLICATION_CONTEXT ( 'automotive_design' ) ;
#2 =( LENGTH_UNIT ( ) NAMED_UNIT ( * ) SI_UNIT ( .MILLI., .METRE. ) );
#3 = ORIENTED_EDGE ( 'NONE', *, *, #187, .T. ) ;
#4 =( GEOMETRIC_REPRESENTATION_CONTEXT ( 3 ) GLOBAL_UNCERTAINTY_ASSIGNED_CONTEXT ( ( #162 ) ) GLOBAL_UNIT_ASSIGNED_CONTEXT ( ( #47, #176, #152 ) ) REPRESENTATION_CONTEXT ( 'NONE', 'WORKASPACE' ) );
#5 = LINE ( 'NONE', #79, #40 ) ;
#6 = VERTEX_POINT ( 'NONE', #108 ) ;
#7 = CARTESIAN_POINT ( 'NONE',  ( -782.0000000000350200, -967.9999999999849900, 4.000000000000000000 ) ) ;
#8 = UNCERTAINTY_MEASURE_WITH_UNIT (LENGTH_MEASURE( 1.000000000000000100E-005 ), #2, 'distance_accuracy_value', 'NONE');
#9 = CARTESIAN_POINT ( 'NONE',  ( -782.0000000000350200, -967.9999999999849900, 4.000000000000000000 ) ) ;
#10 = PLANE ( 'NONE',  #194 ) ;
#11 = MECHANICAL_DESIGN_GEOMETRIC_PRESENTATION_REPRESENTATION (  '', ( #52 ), #156 ) ;
#12 = CARTESIAN_POINT ( 'NONE',  ( -782.0000000000350200, -967.9999999999849900, 4.000000000000000000 ) ) ;
#13 = ORIENTED_EDGE ( 'NONE', *, *, #113, .F. ) ;
#14 = SURFACE_SIDE_STYLE ('',( #222 ) ) ;
#15 = UNCERTAINTY_MEASURE_WITH_UNIT (LENGTH_MEASURE( 1.000000000000000100E-005 ), #67, 'distance_accuracy_value', 'NONE');
#16 = EDGE_CURVE ( 'NONE', #57, #127, #74, .T. ) ;
#17 = CARTESIAN_POINT ( 'NONE',  ( 1717.999999999970000, -967.9999999999849900, 4.000000000000000000 ) ) ;
#18 = MECHANICAL_DESIGN_GEOMETRIC_PRESENTATION_REPRESENTATION (  '', ( #141 ), #4 ) ;
#19 =( NAMED_UNIT ( * ) PLANE_ANGLE_UNIT ( ) SI_UNIT ( $, .RADIAN. ) );
#20 = FACE_OUTER_BOUND ( 'NONE', #118, .T. ) ;
#21 =( NAMED_UNIT ( * ) PLANE_ANGLE_UNIT ( ) SI_UNIT ( $, .RADIAN. ) );
#22 = VECTOR ( 'NONE', #44, 1000.000000000000000 ) ;
#23 = ORIENTED_EDGE ( 'NONE', *, *, #136, .F. ) ;
#24 = EDGE_CURVE ( 'NONE', #115, #89, #139, .T. ) ;
#25 = ORIENTED_EDGE ( 'NONE', *, *, #16, .T. ) ;
#26 = ADVANCED_BREP_SHAPE_REPRESENTATION ( '6520102ST_CNAJF00', ( #226, #59 ), #173 ) ;
#27 = DIRECTION ( 'NONE',  ( 0.0000000000000000000, 0.0000000000000000000, 1.000000000000000000 ) ) ;
#28 = DIRECTION ( 'NONE',  ( 0.0000000000000000000, 0.0000000000000000000, 1.000000000000000000 ) ) ;
#29 =( NAMED_UNIT ( * ) PLANE_ANGLE_UNIT ( ) SI_UNIT ( $, .RADIAN. ) );
#30 = EDGE_LOOP ( 'NONE', ( #76, #163, #214, #223 ) ) ;
#31 = CARTESIAN_POINT ( 'NONE',  ( -782.0000000000350200, -967.9999999999849900, 4.000000000000000000 ) ) ;
#32 = APPLICATION_PROTOCOL_DEFINITION ( 'draft international standard', 'automotive_design', 1998, #119 ) ;
#33 = PRODUCT_CONTEXT ( 'NONE', #1, 'mechanical' ) ;
#34 = APPLICATION_PROTOCOL_DEFINITION ( 'draft international standard', 'automotive_design', 1998, #1 ) ;
#35 = COLOUR_RGB ( '',0.5686274509803921400, 0.6078431372549019100, 0.6470588235294118000 ) ;
#36 = CARTESIAN_POINT ( 'NONE',  ( -782.0000000000349000, 532.0000000000150100, 0.0000000000000000000 ) ) ;
#37 = PRODUCT_DEFINITION_CONTEXT ( 'detailed design', #119, 'design' ) ;
#38 = PRODUCT_DEFINITION_FORMATION_WITH_SPECIFIED_SOURCE ( 'ANY', '', #54, .NOT_KNOWN. ) ;
#39 = FACE_OUTER_BOUND ( 'NONE', #30, .T. ) ;
#40 = VECTOR ( 'NONE', #175, 1000.000000000000000 ) ;
#41 = ORIENTED_EDGE ( 'NONE', *, *, #199, .T. ) ;
#42 = STYLED_ITEM ( 'NONE', ( #167 ), #26 ) ;
#43 = FILL_AREA_STYLE ('',( #229 ) ) ;
#44 = DIRECTION ( 'NONE',  ( 0.0000000000000000000, 0.0000000000000000000, -1.000000000000000000 ) ) ;
#45 = ORIENTED_EDGE ( 'NONE', *, *, #219, .T. ) ;
#46 = CARTESIAN_POINT ( 'NONE',  ( 1717.999999999970000, -967.9999999999849900, 4.000000000000000000 ) ) ;
#47 =( LENGTH_UNIT ( ) NAMED_UNIT ( * ) SI_UNIT ( .MILLI., .METRE. ) );
#48 = ADVANCED_FACE ( 'NONE', ( #133 ), #109, .F. ) ;
#49 = DIRECTION ( 'NONE',  ( 0.0000000000000000000, 0.0000000000000000000, 1.000000000000000000 ) ) ;
#50 = LINE ( 'NONE', #227, #107 ) ;
#51 = ORIENTED_EDGE ( 'NONE', *, *, #58, .T. ) ;
#52 = STYLED_ITEM ( 'NONE', ( #98 ), #197 ) ;
#53 = LINE ( 'NONE', #12, #150 ) ;
#54 = PRODUCT ( '6520102ST_CNAJF00', '6520102ST_CNAJF00', '', ( #33 ) ) ;
#55 = CARTESIAN_POINT ( 'NONE',  ( -782.0000000000349000, 532.0000000000150100, 4.000000000000000000 ) ) ;
#56 = DIRECTION ( 'NONE',  ( -0.0000000000000000000, -0.0000000000000000000, 1.000000000000000000 ) ) ;
#57 = VERTEX_POINT ( 'NONE', #36 ) ;
#58 = EDGE_CURVE ( 'NONE', #86, #115, #143, .T. ) ;
#59 = AXIS2_PLACEMENT_3D ( 'NONE', #100, #101, #104 ) ;
#60 = VECTOR ( 'NONE', #94, 1000.000000000000000 ) ;
#61 = CARTESIAN_POINT ( 'NONE',  ( 1717.999999999970000, -967.9999999999849900, 4.000000000000000000 ) ) ;
#62 = ADVANCED_FACE ( 'NONE', ( #20 ), #212, .F. ) ;
#63 = EDGE_LOOP ( 'NONE', ( #205, #41, #174, #218 ) ) ;
#64 = DIRECTION ( 'NONE',  ( -1.000000000000000000, 0.0000000000000000000, 0.0000000000000000000 ) ) ;
#65 = MECHANICAL_DESIGN_GEOMETRIC_PRESENTATION_REPRESENTATION (  '', ( #42 ), #145 ) ;
#66 =( NAMED_UNIT ( * ) SI_UNIT ( $, .STERADIAN. ) SOLID_ANGLE_UNIT ( ) );
#67 =( LENGTH_UNIT ( ) NAMED_UNIT ( * ) SI_UNIT ( .MILLI., .METRE. ) );
#68 = DIRECTION ( 'NONE',  ( -1.000000000000000000, -0.0000000000000000000, -0.0000000000000000000 ) ) ;
#69 = SURFACE_STYLE_FILL_AREA ( #140 ) ;
#70 = ORIENTED_EDGE ( 'NONE', *, *, #24, .T. ) ;
#71 = PRESENTATION_STYLE_ASSIGNMENT (( #213 ) ) ;
#72 = EDGE_LOOP ( 'NONE', ( #25, #210, #190, #165 ) ) ;
#73 = DIRECTION ( 'NONE',  ( -0.0000000000000000000, 0.0000000000000000000, 1.000000000000000000 ) ) ;
#74 = LINE ( 'NONE', #147, #93 ) ;
#75 = COLOUR_RGB ( '',0.7529411764705882200, 0.7529411764705882200, 0.7529411764705882200 ) ;
#76 = ORIENTED_EDGE ( 'NONE', *, *, #187, .F. ) ;
#77 =( NAMED_UNIT ( * ) SI_UNIT ( $, .STERADIAN. ) SOLID_ANGLE_UNIT ( ) );
#78 = DIRECTION ( 'NONE',  ( 1.000000000000000000, 0.0000000000000000000, -0.0000000000000000000 ) ) ;
#79 = CARTESIAN_POINT ( 'NONE',  ( -782.0000000000350200, -967.9999999999849900, 0.0000000000000000000 ) ) ;
#80 = VECTOR ( 'NONE', #91, 1000.000000000000000 ) ;
#81 = CARTESIAN_POINT ( 'NONE',  ( -782.0000000000350200, -967.9999999999849900, 4.000000000000000000 ) ) ;
#82 = MECHANICAL_DESIGN_GEOMETRIC_PRESENTATION_REPRESENTATION (  '', ( #203 ), #87 ) ;
#83 = CARTESIAN_POINT ( 'NONE',  ( -782.0000000000350200, -967.9999999999849900, 0.0000000000000000000 ) ) ;
#84 = DIRECTION ( 'NONE',  ( 0.0000000000000000000, 0.0000000000000000000, -1.000000000000000000 ) ) ;
#85 = EDGE_CURVE ( 'NONE', #127, #155, #50, .T. ) ;
#86 = VERTEX_POINT ( 'NONE', #189 ) ;
#87 =( GEOMETRIC_REPRESENTATION_CONTEXT ( 3 ) GLOBAL_UNCERTAINTY_ASSIGNED_CONTEXT ( ( #232 ) ) GLOBAL_UNIT_ASSIGNED_CONTEXT ( ( #198, #215, #142 ) ) REPRESENTATION_CONTEXT ( 'NONE', 'WORKASPACE' ) );
#88 = DIRECTION ( 'NONE',  ( 1.000000000000000000, 0.0000000000000000000, 0.0000000000000000000 ) ) ;
#89 = VERTEX_POINT ( 'NONE', #193 ) ;
#90 = COLOUR_RGB ( '',0.5686274509803921400, 0.6078431372549019100, 0.6470588235294118000 ) ;
#91 = DIRECTION ( 'NONE',  ( -0.0000000000000000000, 1.000000000000000000, 0.0000000000000000000 ) ) ;
#92 = ORIENTED_EDGE ( 'NONE', *, *, #219, .F. ) ;
#93 = VECTOR ( 'NONE', #56, 1000.000000000000000 ) ;
#94 = DIRECTION ( 'NONE',  ( -1.000000000000000000, -0.0000000000000000000, 0.0000000000000000000 ) ) ;
#95 = CARTESIAN_POINT ( 'NONE',  ( -782.0000000000350200, 532.0000000000150100, 0.0000000000000000000 ) ) ;
#96 = CARTESIAN_POINT ( 'NONE',  ( -782.0000000000350200, -967.9999999999849900, 0.0000000000000000000 ) ) ;
#97 = FILL_AREA_STYLE ('',( #153 ) ) ;
#98 = PRESENTATION_STYLE_ASSIGNMENT (( #230 ) ) ;
#99 = VERTEX_POINT ( 'NONE', #170 ) ;
#100 = CARTESIAN_POINT ( 'NONE',  ( 0.0000000000000000000, 0.0000000000000000000, 0.0000000000000000000 ) ) ;
#101 = DIRECTION ( 'NONE',  ( 0.0000000000000000000, 0.0000000000000000000, 1.000000000000000000 ) ) ;
#102 = DIRECTION ( 'NONE',  ( 0.0000000000000000000, -1.000000000000000000, 0.0000000000000000000 ) ) ;
#103 = LINE ( 'NONE', #83, #186 ) ;
#104 = DIRECTION ( 'NONE',  ( 1.000000000000000000, 0.0000000000000000000, 0.0000000000000000000 ) ) ;
#105 = FILL_AREA_STYLE ('',( #178 ) ) ;
#106 = EDGE_LOOP ( 'NONE', ( #45, #111, #3, #144 ) ) ;
#107 = VECTOR ( 'NONE', #131, 1000.000000000000000 ) ;
#108 = CARTESIAN_POINT ( 'NONE',  ( -782.0000000000350200, -967.9999999999849900, 0.0000000000000000000 ) ) ;
#109 = PLANE ( 'NONE',  #125 ) ;
#110 = SURFACE_STYLE_FILL_AREA ( #105 ) ;
#111 = ORIENTED_EDGE ( 'NONE', *, *, #148, .F. ) ;
#112 = EDGE_LOOP ( 'NONE', ( #13, #128, #23, #217 ) ) ;
#113 = EDGE_CURVE ( 'NONE', #115, #57, #126, .T. ) ;
#114 = DIRECTION ( 'NONE',  ( 0.0000000000000000000, 0.0000000000000000000, 1.000000000000000000 ) ) ;
#115 = VERTEX_POINT ( 'NONE', #129 ) ;
#116 = SURFACE_SIDE_STYLE ('',( #110 ) ) ;
#117 = VECTOR ( 'NONE', #68, 1000.000000000000000 ) ;
#118 = EDGE_LOOP ( 'NONE', ( #70, #195, #92, #51 ) ) ;
#119 = APPLICATION_CONTEXT ( 'automotive_design' ) ;
#120 = SURFACE_STYLE_USAGE ( .BOTH. , #116 ) ;
#121 = LINE ( 'NONE', #17, #157 ) ;
#122 = LINE ( 'NONE', #46, #182 ) ;
#123 = FACE_OUTER_BOUND ( 'NONE', #72, .T. ) ;
#124 = CLOSED_SHELL ( 'NONE', ( #137, #211, #207, #62, #48, #197 ) ) ;
#125 = AXIS2_PLACEMENT_3D ( 'NONE', #7, #184, #164 ) ;
#126 = LINE ( 'NONE', #95, #60 ) ;
#127 = VERTEX_POINT ( 'NONE', #55 ) ;
#128 = ORIENTED_EDGE ( 'NONE', *, *, #58, .F. ) ;
#129 = CARTESIAN_POINT ( 'NONE',  ( 1717.999999999969800, 532.0000000000150100, 0.0000000000000000000 ) ) ;
#130 = AXIS2_PLACEMENT_3D ( 'NONE', #216, #88, #84 ) ;
#131 = DIRECTION ( 'NONE',  ( 0.0000000000000000000, -1.000000000000000000, -0.0000000000000000000 ) ) ;
#132 = CARTESIAN_POINT ( 'NONE',  ( 1717.999999999970000, 532.0000000000150100, 4.000000000000000000 ) ) ;
#133 = FACE_OUTER_BOUND ( 'NONE', #106, .T. ) ;
#134 = DIRECTION ( 'NONE',  ( 1.000000000000000000, 0.0000000000000000000, -0.0000000000000000000 ) ) ;
#135 = SURFACE_STYLE_USAGE ( .BOTH. , #169 ) ;
#136 = EDGE_CURVE ( 'NONE', #6, #86, #5, .T. ) ;
#137 = ADVANCED_FACE ( 'NONE', ( #188 ), #192, .F. ) ;
#138 = DIRECTION ( 'NONE',  ( 1.000000000000000000, 0.0000000000000000000, -0.0000000000000000000 ) ) ;
#139 = LINE ( 'NONE', #206, #146 ) ;
#140 = FILL_AREA_STYLE ('',( #159 ) ) ;
#141 = STYLED_ITEM ( 'NONE', ( #204 ), #137 ) ;
#142 =( NAMED_UNIT ( * ) SI_UNIT ( $, .STERADIAN. ) SOLID_ANGLE_UNIT ( ) );
#143 = LINE ( 'NONE', #220, #80 ) ;
#144 = ORIENTED_EDGE ( 'NONE', *, *, #136, .T. ) ;
#145 =( GEOMETRIC_REPRESENTATION_CONTEXT ( 3 ) GLOBAL_UNCERTAINTY_ASSIGNED_CONTEXT ( ( #15 ) ) GLOBAL_UNIT_ASSIGNED_CONTEXT ( ( #67, #21, #200 ) ) REPRESENTATION_CONTEXT ( 'NONE', 'WORKASPACE' ) );
#146 = VECTOR ( 'NONE', #73, 1000.000000000000000 ) ;
#147 = CARTESIAN_POINT ( 'NONE',  ( -782.0000000000350200, 532.0000000000150100, 4.000000000000000000 ) ) ;
#148 = EDGE_CURVE ( 'NONE', #155, #99, #53, .T. ) ;
#149 =( LENGTH_UNIT ( ) NAMED_UNIT ( * ) SI_UNIT ( .MILLI., .METRE. ) );
#150 = VECTOR ( 'NONE', #138, 1000.000000000000000 ) ;
#151 = DIRECTION ( 'NONE',  ( 0.0000000000000000000, 1.000000000000000000, -0.0000000000000000000 ) ) ;
#152 =( NAMED_UNIT ( * ) SI_UNIT ( $, .STERADIAN. ) SOLID_ANGLE_UNIT ( ) );
#153 = FILL_AREA_STYLE_COLOUR ( '', #35 ) ;
#154 = FACE_OUTER_BOUND ( 'NONE', #63, .T. ) ;
#155 = VERTEX_POINT ( 'NONE', #81 ) ;
#156 =( GEOMETRIC_REPRESENTATION_CONTEXT ( 3 ) GLOBAL_UNCERTAINTY_ASSIGNED_CONTEXT ( ( #191 ) ) GLOBAL_UNIT_ASSIGNED_CONTEXT ( ( #149, #29, #77 ) ) REPRESENTATION_CONTEXT ( 'NONE', 'WORKASPACE' ) );
#157 = VECTOR ( 'NONE', #49, 1000.000000000000000 ) ;
#158 = LINE ( 'NONE', #31, #22 ) ;
#159 = FILL_AREA_STYLE_COLOUR ( '', #185 ) ;
#160 = PRODUCT_DEFINITION ( 'UNKNOWN', '', #38, #37 ) ;
#161 = EDGE_CURVE ( 'NONE', #99, #89, #122, .T. ) ;
#162 = UNCERTAINTY_MEASURE_WITH_UNIT (LENGTH_MEASURE( 1.000000000000000100E-005 ), #47, 'distance_accuracy_value', 'NONE');
#163 = ORIENTED_EDGE ( 'NONE', *, *, #85, .F. ) ;
#164 = DIRECTION ( 'NONE',  ( 0.0000000000000000000, -0.0000000000000000000, 1.000000000000000000 ) ) ;
#165 = ORIENTED_EDGE ( 'NONE', *, *, #113, .T. ) ;
#166 = AXIS2_PLACEMENT_3D ( 'NONE', #9, #114, #78 ) ;
#167 = PRESENTATION_STYLE_ASSIGNMENT (( #120 ) ) ;
#168 = PRODUCT_DEFINITION_SHAPE ( 'NONE', 'NONE',  #160 ) ;
#169 = SURFACE_SIDE_STYLE ('',( #209 ) ) ;
#170 = CARTESIAN_POINT ( 'NONE',  ( 1717.999999999969800, -967.9999999999849900, 4.000000000000000000 ) ) ;
#171 = DIRECTION ( 'NONE',  ( 0.0000000000000000000, -1.000000000000000000, -0.0000000000000000000 ) ) ;
#172 = LINE ( 'NONE', #132, #117 ) ;
#173 =( GEOMETRIC_REPRESENTATION_CONTEXT ( 3 ) GLOBAL_UNCERTAINTY_ASSIGNED_CONTEXT ( ( #8 ) ) GLOBAL_UNIT_ASSIGNED_CONTEXT ( ( #2, #19, #66 ) ) REPRESENTATION_CONTEXT ( 'NONE', 'WORKASPACE' ) );
#174 = ORIENTED_EDGE ( 'NONE', *, *, #85, .T. ) ;
#175 = DIRECTION ( 'NONE',  ( 1.000000000000000000, 0.0000000000000000000, -0.0000000000000000000 ) ) ;
#176 =( NAMED_UNIT ( * ) PLANE_ANGLE_UNIT ( ) SI_UNIT ( $, .RADIAN. ) );
#177 = EDGE_CURVE ( 'NONE', #57, #6, #103, .T. ) ;
#178 = FILL_AREA_STYLE_COLOUR ( '', #75 ) ;
#179 = PRESENTATION_LAYER_ASSIGNMENT (  '', '', ( #52 ) ) ;
#180 = SURFACE_SIDE_STYLE ('',( #69 ) ) ;
#181 = DIRECTION ( 'NONE',  ( 0.0000000000000000000, -0.0000000000000000000, -1.000000000000000000 ) ) ;
#182 = VECTOR ( 'NONE', #151, 1000.000000000000000 ) ;
#183 = PRODUCT_RELATED_PRODUCT_CATEGORY ( 'part', '', ( #54 ) ) ;
#184 = DIRECTION ( 'NONE',  ( 0.0000000000000000000, 1.000000000000000000, 0.0000000000000000000 ) ) ;
#185 = COLOUR_RGB ( '',0.0000000000000000000, 0.0000000000000000000, 0.0000000000000000000 ) ;
#186 = VECTOR ( 'NONE', #171, 1000.000000000000000 ) ;
#187 = EDGE_CURVE ( 'NONE', #155, #6, #158, .T. ) ;
#188 = FACE_OUTER_BOUND ( 'NONE', #112, .T. ) ;
#189 = CARTESIAN_POINT ( 'NONE',  ( 1717.999999999969800, -967.9999999999849900, 0.0000000000000000000 ) ) ;
#190 = ORIENTED_EDGE ( 'NONE', *, *, #24, .F. ) ;
#191 = UNCERTAINTY_MEASURE_WITH_UNIT (LENGTH_MEASURE( 1.000000000000000100E-005 ), #149, 'distance_accuracy_value', 'NONE');
#192 = PLANE ( 'NONE',  #224 ) ;
#193 = CARTESIAN_POINT ( 'NONE',  ( 1717.999999999969800, 532.0000000000150100, 4.000000000000000000 ) ) ;
#194 = AXIS2_PLACEMENT_3D ( 'NONE', #196, #102, #181 ) ;
#195 = ORIENTED_EDGE ( 'NONE', *, *, #161, .F. ) ;
#196 = CARTESIAN_POINT ( 'NONE',  ( 1717.999999999970000, 532.0000000000150100, 4.000000000000000000 ) ) ;
#197 = ADVANCED_FACE ( 'NONE', ( #154 ), #208, .T. ) ;
#198 =( LENGTH_UNIT ( ) NAMED_UNIT ( * ) SI_UNIT ( .MILLI., .METRE. ) );
#199 = EDGE_CURVE ( 'NONE', #89, #127, #172, .T. ) ;
#200 =( NAMED_UNIT ( * ) SI_UNIT ( $, .STERADIAN. ) SOLID_ANGLE_UNIT ( ) );
#201 = SHAPE_DEFINITION_REPRESENTATION ( #168, #26 ) ;
#202 = PRESENTATION_LAYER_ASSIGNMENT (  '', '', ( #141 ) ) ;
#203 = STYLED_ITEM ( 'NONE', ( #71 ), #226 ) ;
#204 = PRESENTATION_STYLE_ASSIGNMENT (( #135 ) ) ;
#205 = ORIENTED_EDGE ( 'NONE', *, *, #161, .T. ) ;
#206 = CARTESIAN_POINT ( 'NONE',  ( 1717.999999999970000, 532.0000000000150100, 4.000000000000000000 ) ) ;
#207 = ADVANCED_FACE ( 'NONE', ( #123 ), #10, .F. ) ;
#208 = PLANE ( 'NONE',  #166 ) ;
#209 = SURFACE_STYLE_FILL_AREA ( #43 ) ;
#210 = ORIENTED_EDGE ( 'NONE', *, *, #199, .F. ) ;
#211 = ADVANCED_FACE ( 'NONE', ( #39 ), #231, .F. ) ;
#212 = PLANE ( 'NONE',  #228 ) ;
#213 = SURFACE_STYLE_USAGE ( .BOTH. , #180 ) ;
#214 = ORIENTED_EDGE ( 'NONE', *, *, #16, .F. ) ;
#215 =( NAMED_UNIT ( * ) PLANE_ANGLE_UNIT ( ) SI_UNIT ( $, .RADIAN. ) );
#216 = CARTESIAN_POINT ( 'NONE',  ( -782.0000000000350200, 532.0000000000150100, 4.000000000000000000 ) ) ;
#217 = ORIENTED_EDGE ( 'NONE', *, *, #177, .F. ) ;
#218 = ORIENTED_EDGE ( 'NONE', *, *, #148, .T. ) ;
#219 = EDGE_CURVE ( 'NONE', #86, #99, #121, .T. ) ;
#220 = CARTESIAN_POINT ( 'NONE',  ( 1717.999999999969800, -967.9999999999849900, 0.0000000000000000000 ) ) ;
#221 = PRESENTATION_LAYER_ASSIGNMENT (  '', '', ( #203 ) ) ;
#222 = SURFACE_STYLE_FILL_AREA ( #97 ) ;
#223 = ORIENTED_EDGE ( 'NONE', *, *, #177, .T. ) ;
#224 = AXIS2_PLACEMENT_3D ( 'NONE', #96, #27, #134 ) ;
#225 = PRESENTATION_LAYER_ASSIGNMENT (  '', '', ( #42 ) ) ;
#226 = MANIFOLD_SOLID_BREP ( 'Importiert1', #124 ) ;
#227 = CARTESIAN_POINT ( 'NONE',  ( -782.0000000000350200, 532.0000000000150100, 4.000000000000000000 ) ) ;
#228 = AXIS2_PLACEMENT_3D ( 'NONE', #61, #64, #28 ) ;
#229 = FILL_AREA_STYLE_COLOUR ( '', #90 ) ;
#230 = SURFACE_STYLE_USAGE ( .BOTH. , #14 ) ;
#231 = PLANE ( 'NONE',  #130 ) ;
#232 = UNCERTAINTY_MEASURE_WITH_UNIT (LENGTH_MEASURE( 1.000000000000000100E-005 ), #198, 'distance_accuracy_value', 'NONE');
ENDSEC;
END-ISO-10303-21;
