ISO-10303-21;
HEADER;
FILE_DESCRIPTION (( 'STEP AP214' ),
    '1' );
FILE_NAME ('6520100',
    '2019-02-01T12:50:14',
    ( '' ),
    ('JUGARD+KÜNSTNER GmbH'),
    'SwSTEP 2.0',
    'SolidWorks 2017',
    '' );
FILE_SCHEMA (( 'AUTOMOTIVE_DESIGN' ));
ENDSEC;

DATA;
#1 = VECTOR ( 'NONE', #127, 1000.000000000000000 ) ;
#2 = VERTEX_POINT ( 'NONE', #22 ) ;
#3 = CARTESIAN_POINT ( 'NONE',  ( 1000.000000000000000, -450.0000000000000000, 4.000000000000000000 ) ) ;
#4 = VERTEX_POINT ( 'NONE', #124 ) ;
#5 = CARTESIAN_POINT ( 'NONE',  ( -1000.000000000000000, 550.0000000000000000, 0.0000000000000000000 ) ) ;
#6 = DIRECTION ( 'NONE',  ( 0.0000000000000000000, -0.0000000000000000000, -1.000000000000000000 ) ) ;
#7 = UNCERTAINTY_MEASURE_WITH_UNIT (LENGTH_MEASURE( 1.000000000000000100E-005 ), #18, 'distance_accuracy_value', 'NONE');
#8 = VERTEX_POINT ( 'NONE', #139 ) ;
#9 = PRODUCT_RELATED_PRODUCT_CATEGORY ( 'part', '', ( #30 ) ) ;
#10 = VECTOR ( 'NONE', #38, 1000.000000000000000 ) ;
#11 = CARTESIAN_POINT ( 'NONE',  ( 1000.000000000000000, -450.0000000000000000, 4.000000000000000000 ) ) ;
#12 = ORIENTED_EDGE ( 'NONE', *, *, #113, .F. ) ;
#13 =( NAMED_UNIT ( * ) SI_UNIT ( $, .STERADIAN. ) SOLID_ANGLE_UNIT ( ) );
#14 = PRESENTATION_LAYER_ASSIGNMENT (  '', '', ( #73 ) ) ;
#15 = CARTESIAN_POINT ( 'NONE',  ( 0.0000000000000000000, 0.0000000000000000000, 0.0000000000000000000 ) ) ;
#16 = AXIS2_PLACEMENT_3D ( 'NONE', #129, #61, #162 ) ;
#17 = ORIENTED_EDGE ( 'NONE', *, *, #64, .F. ) ;
#18 =( LENGTH_UNIT ( ) NAMED_UNIT ( * ) SI_UNIT ( .MILLI., .METRE. ) );
#19 = VECTOR ( 'NONE', #100, 1000.000000000000000 ) ;
#20 = VECTOR ( 'NONE', #57, 1000.000000000000000 ) ;
#21 = MECHANICAL_DESIGN_GEOMETRIC_PRESENTATION_REPRESENTATION (  '', ( #68 ), #153 ) ;
#22 = CARTESIAN_POINT ( 'NONE',  ( -1000.000000000000000, 550.0000000000000000, 4.000000000000000000 ) ) ;
#23 = LINE ( 'NONE', #5, #19 ) ;
#24 = VERTEX_POINT ( 'NONE', #125 ) ;
#25 = DIRECTION ( 'NONE',  ( 0.0000000000000000000, -1.000000000000000000, 0.0000000000000000000 ) ) ;
#26 = CARTESIAN_POINT ( 'NONE',  ( 1000.000000000000000, -450.0000000000000000, 0.0000000000000000000 ) ) ;
#27 = CARTESIAN_POINT ( 'NONE',  ( -1000.000000000000000, -450.0000000000000000, 4.000000000000000000 ) ) ;
#28 = ORIENTED_EDGE ( 'NONE', *, *, #102, .F. ) ;
#29 = ADVANCED_FACE ( 'NONE', ( #59 ), #35, .F. ) ;
#30 = PRODUCT ( '6520100_CNAJF00', '6520100_CNAJF00', '', ( #134 ) ) ;
#31 = VECTOR ( 'NONE', #192, 1000.000000000000000 ) ;
#32 = DIRECTION ( 'NONE',  ( 1.000000000000000000, 0.0000000000000000000, 0.0000000000000000000 ) ) ;
#33 = DIRECTION ( 'NONE',  ( 0.0000000000000000000, 0.0000000000000000000, 1.000000000000000000 ) ) ;
#34 = EDGE_LOOP ( 'NONE', ( #174, #171, #98, #47 ) ) ;
#35 = PLANE ( 'NONE',  #197 ) ;
#36 = VECTOR ( 'NONE', #50, 1000.000000000000000 ) ;
#37 = PLANE ( 'NONE',  #143 ) ;
#38 = DIRECTION ( 'NONE',  ( 0.0000000000000000000, 0.0000000000000000000, 1.000000000000000000 ) ) ;
#39 =( GEOMETRIC_REPRESENTATION_CONTEXT ( 3 ) GLOBAL_UNCERTAINTY_ASSIGNED_CONTEXT ( ( #7 ) ) GLOBAL_UNIT_ASSIGNED_CONTEXT ( ( #18, #76, #151 ) ) REPRESENTATION_CONTEXT ( 'NONE', 'WORKASPACE' ) );
#40 = CARTESIAN_POINT ( 'NONE',  ( -1000.000000000000000, -450.0000000000000000, 4.000000000000000000 ) ) ;
#41 = VECTOR ( 'NONE', #121, 1000.000000000000000 ) ;
#42 = FACE_OUTER_BOUND ( 'NONE', #72, .T. ) ;
#43 = ORIENTED_EDGE ( 'NONE', *, *, #102, .T. ) ;
#44 = SURFACE_SIDE_STYLE ('',( #111 ) ) ;
#45 =( NAMED_UNIT ( * ) SI_UNIT ( $, .STERADIAN. ) SOLID_ANGLE_UNIT ( ) );
#46 = CARTESIAN_POINT ( 'NONE',  ( 1000.000000000000000, -450.0000000000000000, 4.000000000000000000 ) ) ;
#47 = ORIENTED_EDGE ( 'NONE', *, *, #113, .T. ) ;
#48 = DIRECTION ( 'NONE',  ( 0.0000000000000000000, 0.0000000000000000000, -1.000000000000000000 ) ) ;
#49 = DIRECTION ( 'NONE',  ( 0.0000000000000000000, -1.000000000000000000, -0.0000000000000000000 ) ) ;
#50 = DIRECTION ( 'NONE',  ( -0.0000000000000000000, -0.0000000000000000000, 1.000000000000000000 ) ) ;
#51 = CARTESIAN_POINT ( 'NONE',  ( -1000.000000000000000, -449.9999999999999400, 4.000000000000000000 ) ) ;
#52 = LINE ( 'NONE', #158, #20 ) ;
#53 = UNCERTAINTY_MEASURE_WITH_UNIT (LENGTH_MEASURE( 1.000000000000000100E-005 ), #186, 'distance_accuracy_value', 'NONE');
#54 = FACE_OUTER_BOUND ( 'NONE', #137, .T. ) ;
#55 = EDGE_LOOP ( 'NONE', ( #135, #17, #133, #43 ) ) ;
#56 = ORIENTED_EDGE ( 'NONE', *, *, #154, .F. ) ;
#57 = DIRECTION ( 'NONE',  ( -1.000000000000000000, -0.0000000000000000000, -0.0000000000000000000 ) ) ;
#58 = SHAPE_DEFINITION_REPRESENTATION ( #79, #107 ) ;
#59 = FACE_OUTER_BOUND ( 'NONE', #55, .T. ) ;
#60 = CARTESIAN_POINT ( 'NONE',  ( -1000.000000000000000, 550.0000000000000000, 4.000000000000000000 ) ) ;
#61 = DIRECTION ( 'NONE',  ( 0.0000000000000000000, 0.0000000000000000000, 1.000000000000000000 ) ) ;
#62 = CARTESIAN_POINT ( 'NONE',  ( 1000.000000000000000, 550.0000000000000000, 4.000000000000000000 ) ) ;
#63 = LINE ( 'NONE', #62, #187 ) ;
#64 = EDGE_CURVE ( 'NONE', #91, #4, #138, .T. ) ;
#65 = EDGE_LOOP ( 'NONE', ( #112, #179, #101, #156 ) ) ;
#66 = PLANE ( 'NONE',  #189 ) ;
#67 = LINE ( 'NONE', #182, #41 ) ;
#68 = STYLED_ITEM ( 'NONE', ( #86 ), #201 ) ;
#69 = CARTESIAN_POINT ( 'NONE',  ( -1000.000000000000000, 550.0000000000000000, 4.000000000000000000 ) ) ;
#70 = LINE ( 'NONE', #99, #36 ) ;
#71 = SURFACE_SIDE_STYLE ('',( #146 ) ) ;
#72 = EDGE_LOOP ( 'NONE', ( #128, #196, #116, #200 ) ) ;
#73 = STYLED_ITEM ( 'NONE', ( #104 ), #107 ) ;
#74 = APPLICATION_CONTEXT ( 'automotive_design' ) ;
#75 = PRESENTATION_LAYER_ASSIGNMENT (  '', '', ( #68 ) ) ;
#76 =( NAMED_UNIT ( * ) PLANE_ANGLE_UNIT ( ) SI_UNIT ( $, .RADIAN. ) );
#77 = EDGE_CURVE ( 'NONE', #4, #2, #52, .T. ) ;
#78 = CARTESIAN_POINT ( 'NONE',  ( -1000.000000000000000, -449.9999999999999400, 4.000000000000000000 ) ) ;
#79 = PRODUCT_DEFINITION_SHAPE ( 'NONE', 'NONE',  #150 ) ;
#80 = CARTESIAN_POINT ( 'NONE',  ( 1000.000000000000000, -450.0000000000000000, 4.000000000000000000 ) ) ;
#81 = DIRECTION ( 'NONE',  ( 0.0000000000000000000, -1.000000000000000000, -0.0000000000000000000 ) ) ;
#82 = LINE ( 'NONE', #78, #97 ) ;
#83 = DIRECTION ( 'NONE',  ( -0.0000000000000000000, 0.0000000000000000000, 1.000000000000000000 ) ) ;
#84 = MECHANICAL_DESIGN_GEOMETRIC_PRESENTATION_REPRESENTATION (  '', ( #73 ), #114 ) ;
#85 = DIRECTION ( 'NONE',  ( 1.000000000000000000, 0.0000000000000000000, -0.0000000000000000000 ) ) ;
#86 = PRESENTATION_STYLE_ASSIGNMENT (( #108 ) ) ;
#87 = ORIENTED_EDGE ( 'NONE', *, *, #89, .T. ) ;
#88 = APPLICATION_CONTEXT ( 'automotive_design' ) ;
#89 = EDGE_CURVE ( 'NONE', #191, #8, #82, .T. ) ;
#90 = SURFACE_STYLE_USAGE ( .BOTH. , #44 ) ;
#91 = VERTEX_POINT ( 'NONE', #3 ) ;
#92 = UNCERTAINTY_MEASURE_WITH_UNIT (LENGTH_MEASURE( 1.000000000000000100E-005 ), #167, 'distance_accuracy_value', 'NONE');
#93 =( NAMED_UNIT ( * ) PLANE_ANGLE_UNIT ( ) SI_UNIT ( $, .RADIAN. ) );
#94 = PRODUCT_DEFINITION_CONTEXT ( 'detailed design', #88, 'design' ) ;
#95 = ORIENTED_EDGE ( 'NONE', *, *, #115, .T. ) ;
#96 = EDGE_CURVE ( 'NONE', #2, #191, #188, .T. ) ;
#97 = VECTOR ( 'NONE', #48, 1000.000000000000000 ) ;
#98 = ORIENTED_EDGE ( 'NONE', *, *, #96, .T. ) ;
#99 = CARTESIAN_POINT ( 'NONE',  ( -1000.000000000000000, 550.0000000000000000, 4.000000000000000000 ) ) ;
#100 = DIRECTION ( 'NONE',  ( -1.000000000000000000, -0.0000000000000000000, 0.0000000000000000000 ) ) ;
#101 = ORIENTED_EDGE ( 'NONE', *, *, #130, .F. ) ;
#102 = EDGE_CURVE ( 'NONE', #24, #160, #169, .T. ) ;
#103 = DIRECTION ( 'NONE',  ( 0.0000000000000000000, 0.0000000000000000000, -1.000000000000000000 ) ) ;
#104 = PRESENTATION_STYLE_ASSIGNMENT (( #90 ) ) ;
#105 = CLOSED_SHELL ( 'NONE', ( #119, #198, #175, #29, #120, #165 ) ) ;
#106 =( NAMED_UNIT ( * ) PLANE_ANGLE_UNIT ( ) SI_UNIT ( $, .RADIAN. ) );
#107 = ADVANCED_BREP_SHAPE_REPRESENTATION ( '6520100_CNAJF00', ( #201, #126 ), #39 ) ;
#108 = SURFACE_STYLE_USAGE ( .BOTH. , #71 ) ;
#109 = EDGE_CURVE ( 'NONE', #8, #24, #67, .T. ) ;
#110 = ORIENTED_EDGE ( 'NONE', *, *, #109, .T. ) ;
#111 = SURFACE_STYLE_FILL_AREA ( #184 ) ;
#112 = ORIENTED_EDGE ( 'NONE', *, *, #185, .T. ) ;
#113 = EDGE_CURVE ( 'NONE', #191, #91, #159, .T. ) ;
#114 =( GEOMETRIC_REPRESENTATION_CONTEXT ( 3 ) GLOBAL_UNCERTAINTY_ASSIGNED_CONTEXT ( ( #53 ) ) GLOBAL_UNIT_ASSIGNED_CONTEXT ( ( #186, #93, #45 ) ) REPRESENTATION_CONTEXT ( 'NONE', 'WORKASPACE' ) );
#115 = EDGE_CURVE ( 'NONE', #24, #91, #173, .T. ) ;
#116 = ORIENTED_EDGE ( 'NONE', *, *, #185, .F. ) ;
#117 = DIRECTION ( 'NONE',  ( 1.000000000000000000, 0.0000000000000000000, -0.0000000000000000000 ) ) ;
#118 = PLANE ( 'NONE',  #16 ) ;
#119 = ADVANCED_FACE ( 'NONE', ( #190 ), #118, .F. ) ;
#120 = ADVANCED_FACE ( 'NONE', ( #54 ), #172, .F. ) ;
#121 = DIRECTION ( 'NONE',  ( 1.000000000000000000, 0.0000000000000000000, -0.0000000000000000000 ) ) ;
#122 = VECTOR ( 'NONE', #81, 1000.000000000000000 ) ;
#123 = APPLICATION_PROTOCOL_DEFINITION ( 'draft international standard', 'automotive_design', 1998, #74 ) ;
#124 = CARTESIAN_POINT ( 'NONE',  ( 1000.000000000000000, 550.0000000000000000, 4.000000000000000000 ) ) ;
#125 = CARTESIAN_POINT ( 'NONE',  ( 1000.000000000000000, -450.0000000000000000, 0.0000000000000000000 ) ) ;
#126 = AXIS2_PLACEMENT_3D ( 'NONE', #15, #33, #183 ) ;
#127 = DIRECTION ( 'NONE',  ( -0.0000000000000000000, 1.000000000000000000, 0.0000000000000000000 ) ) ;
#128 = ORIENTED_EDGE ( 'NONE', *, *, #89, .F. ) ;
#129 = CARTESIAN_POINT ( 'NONE',  ( -1000.000000000000000, -450.0000000000000000, 0.0000000000000000000 ) ) ;
#130 = EDGE_CURVE ( 'NONE', #160, #4, #63, .T. ) ;
#131 = EDGE_LOOP ( 'NONE', ( #141, #28, #152, #56 ) ) ;
#132 = AXIS2_PLACEMENT_3D ( 'NONE', #69, #32, #103 ) ;
#133 = ORIENTED_EDGE ( 'NONE', *, *, #115, .F. ) ;
#134 = PRODUCT_CONTEXT ( 'NONE', #74, 'mechanical' ) ;
#135 = ORIENTED_EDGE ( 'NONE', *, *, #130, .T. ) ;
#136 = COLOUR_RGB ( '',0.5686274509803921400, 0.6078431372549019100, 0.6470588235294118000 ) ;
#137 = EDGE_LOOP ( 'NONE', ( #95, #12, #87, #110 ) ) ;
#138 = LINE ( 'NONE', #46, #31 ) ;
#139 = CARTESIAN_POINT ( 'NONE',  ( -1000.000000000000000, -449.9999999999999400, 0.0000000000000000000 ) ) ;
#140 = COLOUR_RGB ( '',0.7529411764705882200, 0.7529411764705882200, 0.7529411764705882200 ) ;
#141 = ORIENTED_EDGE ( 'NONE', *, *, #163, .F. ) ;
#142 = DIRECTION ( 'NONE',  ( 0.0000000000000000000, 0.0000000000000000000, 1.000000000000000000 ) ) ;
#143 = AXIS2_PLACEMENT_3D ( 'NONE', #40, #142, #117 ) ;
#144 = DIRECTION ( 'NONE',  ( 0.0000000000000000000, -0.0000000000000000000, 1.000000000000000000 ) ) ;
#145 = CARTESIAN_POINT ( 'NONE',  ( 1000.000000000000000, 550.0000000000000000, 4.000000000000000000 ) ) ;
#146 = SURFACE_STYLE_FILL_AREA ( #168 ) ;
#147 = FILL_AREA_STYLE_COLOUR ( '', #136 ) ;
#148 = LINE ( 'NONE', #176, #122 ) ;
#149 = FILL_AREA_STYLE_COLOUR ( '', #140 ) ;
#150 = PRODUCT_DEFINITION ( 'UNKNOWN', '', #202, #94 ) ;
#151 =( NAMED_UNIT ( * ) SI_UNIT ( $, .STERADIAN. ) SOLID_ANGLE_UNIT ( ) );
#152 = ORIENTED_EDGE ( 'NONE', *, *, #109, .F. ) ;
#153 =( GEOMETRIC_REPRESENTATION_CONTEXT ( 3 ) GLOBAL_UNCERTAINTY_ASSIGNED_CONTEXT ( ( #92 ) ) GLOBAL_UNIT_ASSIGNED_CONTEXT ( ( #167, #106, #13 ) ) REPRESENTATION_CONTEXT ( 'NONE', 'WORKASPACE' ) );
#154 = EDGE_CURVE ( 'NONE', #181, #8, #148, .T. ) ;
#155 = VECTOR ( 'NONE', #85, 1000.000000000000000 ) ;
#156 = ORIENTED_EDGE ( 'NONE', *, *, #163, .T. ) ;
#157 = DIRECTION ( 'NONE',  ( 0.0000000000000000000, 0.0000000000000000000, 1.000000000000000000 ) ) ;
#158 = CARTESIAN_POINT ( 'NONE',  ( 1000.000000000000000, 550.0000000000000000, 4.000000000000000000 ) ) ;
#159 = LINE ( 'NONE', #195, #155 ) ;
#160 = VERTEX_POINT ( 'NONE', #177 ) ;
#161 = DIRECTION ( 'NONE',  ( 0.0000000000000000000, 1.000000000000000000, 0.0000000000000000000 ) ) ;
#162 = DIRECTION ( 'NONE',  ( 1.000000000000000000, 0.0000000000000000000, -0.0000000000000000000 ) ) ;
#163 = EDGE_CURVE ( 'NONE', #160, #181, #23, .T. ) ;
#164 = FACE_OUTER_BOUND ( 'NONE', #34, .T. ) ;
#165 = ADVANCED_FACE ( 'NONE', ( #164 ), #37, .T. ) ;
#166 = APPLICATION_PROTOCOL_DEFINITION ( 'draft international standard', 'automotive_design', 1998, #88 ) ;
#167 =( LENGTH_UNIT ( ) NAMED_UNIT ( * ) SI_UNIT ( .MILLI., .METRE. ) );
#168 = FILL_AREA_STYLE ('',( #147 ) ) ;
#169 = LINE ( 'NONE', #26, #1 ) ;
#170 = DIRECTION ( 'NONE',  ( -1.000000000000000000, 0.0000000000000000000, 0.0000000000000000000 ) ) ;
#171 = ORIENTED_EDGE ( 'NONE', *, *, #77, .T. ) ;
#172 = PLANE ( 'NONE',  #193 ) ;
#173 = LINE ( 'NONE', #11, #10 ) ;
#174 = ORIENTED_EDGE ( 'NONE', *, *, #64, .T. ) ;
#175 = ADVANCED_FACE ( 'NONE', ( #180 ), #66, .F. ) ;
#176 = CARTESIAN_POINT ( 'NONE',  ( -1000.000000000000000, -450.0000000000000000, 0.0000000000000000000 ) ) ;
#177 = CARTESIAN_POINT ( 'NONE',  ( 1000.000000000000000, 550.0000000000000000, 0.0000000000000000000 ) ) ;
#178 = PLANE ( 'NONE',  #132 ) ;
#179 = ORIENTED_EDGE ( 'NONE', *, *, #77, .F. ) ;
#180 = FACE_OUTER_BOUND ( 'NONE', #65, .T. ) ;
#181 = VERTEX_POINT ( 'NONE', #199 ) ;
#182 = CARTESIAN_POINT ( 'NONE',  ( -1000.000000000000000, -450.0000000000000000, 0.0000000000000000000 ) ) ;
#183 = DIRECTION ( 'NONE',  ( 1.000000000000000000, 0.0000000000000000000, 0.0000000000000000000 ) ) ;
#184 = FILL_AREA_STYLE ('',( #149 ) ) ;
#185 = EDGE_CURVE ( 'NONE', #181, #2, #70, .T. ) ;
#186 =( LENGTH_UNIT ( ) NAMED_UNIT ( * ) SI_UNIT ( .MILLI., .METRE. ) );
#187 = VECTOR ( 'NONE', #83, 1000.000000000000000 ) ;
#188 = LINE ( 'NONE', #60, #194 ) ;
#189 = AXIS2_PLACEMENT_3D ( 'NONE', #145, #25, #6 ) ;
#190 = FACE_OUTER_BOUND ( 'NONE', #131, .T. ) ;
#191 = VERTEX_POINT ( 'NONE', #51 ) ;
#192 = DIRECTION ( 'NONE',  ( 0.0000000000000000000, 1.000000000000000000, -0.0000000000000000000 ) ) ;
#193 = AXIS2_PLACEMENT_3D ( 'NONE', #27, #161, #144 ) ;
#194 = VECTOR ( 'NONE', #49, 1000.000000000000000 ) ;
#195 = CARTESIAN_POINT ( 'NONE',  ( -1000.000000000000000, -450.0000000000000000, 4.000000000000000000 ) ) ;
#196 = ORIENTED_EDGE ( 'NONE', *, *, #96, .F. ) ;
#197 = AXIS2_PLACEMENT_3D ( 'NONE', #80, #170, #157 ) ;
#198 = ADVANCED_FACE ( 'NONE', ( #42 ), #178, .F. ) ;
#199 = CARTESIAN_POINT ( 'NONE',  ( -1000.000000000000000, 550.0000000000000000, 0.0000000000000000000 ) ) ;
#200 = ORIENTED_EDGE ( 'NONE', *, *, #154, .T. ) ;
#201 = MANIFOLD_SOLID_BREP ( 'Importiert1', #105 ) ;
#202 = PRODUCT_DEFINITION_FORMATION_WITH_SPECIFIED_SOURCE ( 'ANY', '', #30, .NOT_KNOWN. ) ;
ENDSEC;
END-ISO-10303-21;
