ISO-10303-21;
HEADER;
FILE_DESCRIPTION (( 'STEP AP214' ),
    '1' );
FILE_NAME ('6510050',
    '2019-02-01T12:50:09',
    ( '' ),
    ('JUGARD+KÜNSTNER GmbH'),
    'SwSTEP 2.0',
    'SolidWorks 2017',
    '' );
FILE_SCHEMA (( 'AUTOMOTIVE_DESIGN' ));
ENDSEC;

DATA;
#1 = ORIENTED_EDGE ( 'NONE', *, *, #69, .F. ) ;
#2 = ORIENTED_EDGE ( 'NONE', *, *, #3, .T. ) ;
#3 = EDGE_CURVE ( 'NONE', #76, #89, #116, .T. ) ;
#4 = ORIENTED_EDGE ( 'NONE', *, *, #68, .T. ) ;
#5 =( LENGTH_UNIT ( ) NAMED_UNIT ( * ) SI_UNIT ( .MILLI., .METRE. ) );
#6 = PLANE ( 'NONE',  #199 ) ;
#7 = DIRECTION ( 'NONE',  ( 0.0000000000000000000, -1.000000000000000000, 0.0000000000000000000 ) ) ;
#8 = EDGE_LOOP ( 'NONE', ( #67, #198, #130, #202 ) ) ;
#9 = DIRECTION ( 'NONE',  ( 0.0000000000000000000, 0.0000000000000000000, -1.000000000000000000 ) ) ;
#10 = UNCERTAINTY_MEASURE_WITH_UNIT (LENGTH_MEASURE( 1.000000000000000100E-005 ), #144, 'distance_accuracy_value', 'NONE');
#11 = DIRECTION ( 'NONE',  ( 1.000000000000000000, 0.0000000000000000000, -0.0000000000000000000 ) ) ;
#12 = PLANE ( 'NONE',  #56 ) ;
#13 =( NAMED_UNIT ( * ) PLANE_ANGLE_UNIT ( ) SI_UNIT ( $, .RADIAN. ) );
#14 = VECTOR ( 'NONE', #135, 1000.000000000000000 ) ;
#15 = ORIENTED_EDGE ( 'NONE', *, *, #85, .T. ) ;
#16 = SURFACE_STYLE_USAGE ( .BOTH. , #90 ) ;
#17 = AXIS2_PLACEMENT_3D ( 'NONE', #229, #101, #231 ) ;
#18 = COLOUR_RGB ( '',0.0000000000000000000, 0.0000000000000000000, 0.0000000000000000000 ) ;
#19 = VECTOR ( 'NONE', #62, 1000.000000000000000 ) ;
#20 = VERTEX_POINT ( 'NONE', #98 ) ;
#21 = PRESENTATION_LAYER_ASSIGNMENT (  '', '', ( #185 ) ) ;
#22 = ORIENTED_EDGE ( 'NONE', *, *, #96, .F. ) ;
#23 = EDGE_CURVE ( 'NONE', #201, #51, #220, .T. ) ;
#24 =( LENGTH_UNIT ( ) NAMED_UNIT ( * ) SI_UNIT ( .MILLI., .METRE. ) );
#25 = ORIENTED_EDGE ( 'NONE', *, *, #194, .F. ) ;
#26 = DIRECTION ( 'NONE',  ( 1.000000000000000000, 0.0000000000000000000, 0.0000000000000000000 ) ) ;
#27 =( NAMED_UNIT ( * ) PLANE_ANGLE_UNIT ( ) SI_UNIT ( $, .RADIAN. ) );
#28 = FILL_AREA_STYLE_COLOUR ( '', #211 ) ;
#29 = DIRECTION ( 'NONE',  ( -1.000000000000000000, -0.0000000000000000000, -0.0000000000000000000 ) ) ;
#30 = SURFACE_STYLE_USAGE ( .BOTH. , #125 ) ;
#31 = PRESENTATION_STYLE_ASSIGNMENT (( #84 ) ) ;
#32 = ORIENTED_EDGE ( 'NONE', *, *, #232, .F. ) ;
#33 =( LENGTH_UNIT ( ) NAMED_UNIT ( * ) SI_UNIT ( .MILLI., .METRE. ) );
#34 = VECTOR ( 'NONE', #9, 1000.000000000000000 ) ;
#35 = MECHANICAL_DESIGN_GEOMETRIC_PRESENTATION_REPRESENTATION (  '', ( #185 ), #151 ) ;
#36 = UNCERTAINTY_MEASURE_WITH_UNIT (LENGTH_MEASURE( 1.000000000000000100E-005 ), #173, 'distance_accuracy_value', 'NONE');
#37 = EDGE_LOOP ( 'NONE', ( #2, #22, #78, #15 ) ) ;
#38 = EDGE_CURVE ( 'NONE', #149, #230, #196, .T. ) ;
#39 = AXIS2_PLACEMENT_3D ( 'NONE', #45, #26, #136 ) ;
#40 = PRESENTATION_LAYER_ASSIGNMENT (  '', '', ( #182 ) ) ;
#41 = ORIENTED_EDGE ( 'NONE', *, *, #53, .F. ) ;
#42 = SURFACE_STYLE_FILL_AREA ( #146 ) ;
#43 = LINE ( 'NONE', #163, #181 ) ;
#44 =( NAMED_UNIT ( * ) SI_UNIT ( $, .STERADIAN. ) SOLID_ANGLE_UNIT ( ) );
#45 = CARTESIAN_POINT ( 'NONE',  ( -500.0000000000000000, 250.0000000000000000, 5.000000000000000000 ) ) ;
#46 = CARTESIAN_POINT ( 'NONE',  ( 500.0000000000000000, -250.0000000000000000, 5.000000000000000000 ) ) ;
#47 = CARTESIAN_POINT ( 'NONE',  ( -500.0000000000000000, -250.0000000000000000, 5.000000000000000000 ) ) ;
#48 = ORIENTED_EDGE ( 'NONE', *, *, #194, .T. ) ;
#49 = CARTESIAN_POINT ( 'NONE',  ( -500.0000000000000000, -250.0000000000000000, 0.0000000000000000000 ) ) ;
#50 = FACE_OUTER_BOUND ( 'NONE', #172, .T. ) ;
#51 = VERTEX_POINT ( 'NONE', #47 ) ;
#52 = MECHANICAL_DESIGN_GEOMETRIC_PRESENTATION_REPRESENTATION (  '', ( #182 ), #150 ) ;
#53 = EDGE_CURVE ( 'NONE', #51, #113, #132, .T. ) ;
#54 = PRODUCT_DEFINITION_CONTEXT ( 'detailed design', #210, 'design' ) ;
#55 = CARTESIAN_POINT ( 'NONE',  ( -500.0000000000000000, 250.0000000000000000, 5.000000000000000000 ) ) ;
#56 = AXIS2_PLACEMENT_3D ( 'NONE', #176, #104, #164 ) ;
#57 = APPLICATION_PROTOCOL_DEFINITION ( 'draft international standard', 'automotive_design', 1998, #210 ) ;
#58 = CARTESIAN_POINT ( 'NONE',  ( -500.0000000000000000, -250.0000000000000000, 0.0000000000000000000 ) ) ;
#59 = ORIENTED_EDGE ( 'NONE', *, *, #81, .T. ) ;
#60 = DIRECTION ( 'NONE',  ( 0.0000000000000000000, 0.0000000000000000000, 1.000000000000000000 ) ) ;
#61 = FACE_OUTER_BOUND ( 'NONE', #37, .T. ) ;
#62 = DIRECTION ( 'NONE',  ( -0.0000000000000000000, 1.000000000000000000, 0.0000000000000000000 ) ) ;
#63 = CARTESIAN_POINT ( 'NONE',  ( 500.0000000000000000, -250.0000000000000000, 5.000000000000000000 ) ) ;
#64 = DIRECTION ( 'NONE',  ( -1.000000000000000000, 0.0000000000000000000, 0.0000000000000000000 ) ) ;
#65 = ADVANCED_FACE ( 'NONE', ( #66 ), #12, .F. ) ;
#66 = FACE_OUTER_BOUND ( 'NONE', #8, .T. ) ;
#67 = ORIENTED_EDGE ( 'NONE', *, *, #38, .T. ) ;
#68 = EDGE_CURVE ( 'NONE', #20, #201, #43, .T. ) ;
#69 = EDGE_CURVE ( 'NONE', #76, #20, #200, .T. ) ;
#70 = VECTOR ( 'NONE', #29, 1000.000000000000000 ) ;
#71 = EDGE_LOOP ( 'NONE', ( #41, #188, #153, #48 ) ) ;
#72 = VECTOR ( 'NONE', #109, 1000.000000000000000 ) ;
#73 = ORIENTED_EDGE ( 'NONE', *, *, #23, .T. ) ;
#74 = SURFACE_STYLE_FILL_AREA ( #121 ) ;
#75 = UNCERTAINTY_MEASURE_WITH_UNIT (LENGTH_MEASURE( 1.000000000000000100E-005 ), #33, 'distance_accuracy_value', 'NONE');
#76 = VERTEX_POINT ( 'NONE', #110 ) ;
#77 = CARTESIAN_POINT ( 'NONE',  ( 500.0000000000000000, 250.0000000000000000, 5.000000000000000000 ) ) ;
#78 = ORIENTED_EDGE ( 'NONE', *, *, #38, .F. ) ;
#79 =( NAMED_UNIT ( * ) SI_UNIT ( $, .STERADIAN. ) SOLID_ANGLE_UNIT ( ) );
#80 = CARTESIAN_POINT ( 'NONE',  ( 500.0000000000000000, -250.0000000000000000, 0.0000000000000000000 ) ) ;
#81 = EDGE_CURVE ( 'NONE', #89, #201, #155, .T. ) ;
#82 = SURFACE_SIDE_STYLE ('',( #74 ) ) ;
#83 = ADVANCED_FACE ( 'NONE', ( #61 ), #226, .F. ) ;
#84 = SURFACE_STYLE_USAGE ( .BOTH. , #82 ) ;
#85 = EDGE_CURVE ( 'NONE', #149, #76, #97, .T. ) ;
#86 = DIRECTION ( 'NONE',  ( 0.0000000000000000000, 0.0000000000000000000, 1.000000000000000000 ) ) ;
#87 = LINE ( 'NONE', #147, #178 ) ;
#88 = FILL_AREA_STYLE_COLOUR ( '', #129 ) ;
#89 = VERTEX_POINT ( 'NONE', #175 ) ;
#90 = SURFACE_SIDE_STYLE ('',( #42 ) ) ;
#91 = CARTESIAN_POINT ( 'NONE',  ( -500.0000000000000000, 250.0000000000000000, 5.000000000000000000 ) ) ;
#92 = PRODUCT ( '6510050_CNAJF00', '6510050_CNAJF00', '', ( #209 ) ) ;
#93 = SURFACE_STYLE_FILL_AREA ( #138 ) ;
#94 = LINE ( 'NONE', #63, #72 ) ;
#95 =( GEOMETRIC_REPRESENTATION_CONTEXT ( 3 ) GLOBAL_UNCERTAINTY_ASSIGNED_CONTEXT ( ( #166 ) ) GLOBAL_UNIT_ASSIGNED_CONTEXT ( ( #24, #103, #191 ) ) REPRESENTATION_CONTEXT ( 'NONE', 'WORKASPACE' ) );
#96 = EDGE_CURVE ( 'NONE', #230, #89, #94, .T. ) ;
#97 = LINE ( 'NONE', #80, #19 ) ;
#98 = CARTESIAN_POINT ( 'NONE',  ( -500.0000000000000000, 250.0000000000000000, 0.0000000000000000000 ) ) ;
#99 = PLANE ( 'NONE',  #160 ) ;
#100 = DIRECTION ( 'NONE',  ( 0.0000000000000000000, -0.0000000000000000000, -1.000000000000000000 ) ) ;
#101 = DIRECTION ( 'NONE',  ( 0.0000000000000000000, 0.0000000000000000000, 1.000000000000000000 ) ) ;
#102 = ORIENTED_EDGE ( 'NONE', *, *, #85, .F. ) ;
#103 =( NAMED_UNIT ( * ) PLANE_ANGLE_UNIT ( ) SI_UNIT ( $, .RADIAN. ) );
#104 = DIRECTION ( 'NONE',  ( 0.0000000000000000000, 1.000000000000000000, 0.0000000000000000000 ) ) ;
#105 = DIRECTION ( 'NONE',  ( 0.0000000000000000000, -1.000000000000000000, -0.0000000000000000000 ) ) ;
#106 = CARTESIAN_POINT ( 'NONE',  ( 500.0000000000000000, 250.0000000000000000, 5.000000000000000000 ) ) ;
#107 = PRESENTATION_LAYER_ASSIGNMENT (  '', '', ( #128 ) ) ;
#108 = CARTESIAN_POINT ( 'NONE',  ( 0.0000000000000000000, 0.0000000000000000000, 0.0000000000000000000 ) ) ;
#109 = DIRECTION ( 'NONE',  ( 0.0000000000000000000, 1.000000000000000000, -0.0000000000000000000 ) ) ;
#110 = CARTESIAN_POINT ( 'NONE',  ( 500.0000000000000000, 250.0000000000000000, 0.0000000000000000000 ) ) ;
#111 = ORIENTED_EDGE ( 'NONE', *, *, #96, .T. ) ;
#112 = AXIS2_PLACEMENT_3D ( 'NONE', #46, #64, #86 ) ;
#113 = VERTEX_POINT ( 'NONE', #49 ) ;
#114 = PRESENTATION_STYLE_ASSIGNMENT (( #162 ) ) ;
#115 = MECHANICAL_DESIGN_GEOMETRIC_PRESENTATION_REPRESENTATION (  '', ( #168 ), #95 ) ;
#116 = LINE ( 'NONE', #77, #169 ) ;
#117 = PRESENTATION_STYLE_ASSIGNMENT (( #30 ) ) ;
#118 = CARTESIAN_POINT ( 'NONE',  ( 500.0000000000000000, -250.0000000000000000, 5.000000000000000000 ) ) ;
#119 = PRODUCT_DEFINITION_SHAPE ( 'NONE', 'NONE',  #180 ) ;
#120 = SURFACE_SIDE_STYLE ('',( #192 ) ) ;
#121 = FILL_AREA_STYLE ('',( #88 ) ) ;
#122 = VECTOR ( 'NONE', #124, 1000.000000000000000 ) ;
#123 = ORIENTED_EDGE ( 'NONE', *, *, #205, .T. ) ;
#124 = DIRECTION ( 'NONE',  ( -1.000000000000000000, -0.0000000000000000000, 0.0000000000000000000 ) ) ;
#125 = SURFACE_SIDE_STYLE ('',( #93 ) ) ;
#126 = FILL_AREA_STYLE_COLOUR ( '', #18 ) ;
#127 = ADVANCED_FACE ( 'NONE', ( #50 ), #215, .T. ) ;
#128 = STYLED_ITEM ( 'NONE', ( #31 ), #216 ) ;
#129 = COLOUR_RGB ( '',0.8745098039215686300, 0.9137254901960784000, 1.000000000000000000 ) ;
#130 = ORIENTED_EDGE ( 'NONE', *, *, #53, .T. ) ;
#131 = MECHANICAL_DESIGN_GEOMETRIC_PRESENTATION_REPRESENTATION (  '', ( #128 ), #214 ) ;
#132 = LINE ( 'NONE', #227, #34 ) ;
#133 = FACE_OUTER_BOUND ( 'NONE', #145, .T. ) ;
#134 =( NAMED_UNIT ( * ) PLANE_ANGLE_UNIT ( ) SI_UNIT ( $, .RADIAN. ) );
#135 = DIRECTION ( 'NONE',  ( 0.0000000000000000000, 0.0000000000000000000, 1.000000000000000000 ) ) ;
#136 = DIRECTION ( 'NONE',  ( 0.0000000000000000000, 0.0000000000000000000, -1.000000000000000000 ) ) ;
#137 = FILL_AREA_STYLE ('',( #28 ) ) ;
#138 = FILL_AREA_STYLE ('',( #224 ) ) ;
#139 = UNCERTAINTY_MEASURE_WITH_UNIT (LENGTH_MEASURE( 1.000000000000000100E-005 ), #5, 'distance_accuracy_value', 'NONE');
#140 = APPLICATION_PROTOCOL_DEFINITION ( 'draft international standard', 'automotive_design', 1998, #171 ) ;
#141 = CARTESIAN_POINT ( 'NONE',  ( -500.0000000000000000, 250.0000000000000000, 0.0000000000000000000 ) ) ;
#142 = CARTESIAN_POINT ( 'NONE',  ( 500.0000000000000000, -250.0000000000000000, 0.0000000000000000000 ) ) ;
#143 = FACE_OUTER_BOUND ( 'NONE', #71, .T. ) ;
#144 =( LENGTH_UNIT ( ) NAMED_UNIT ( * ) SI_UNIT ( .MILLI., .METRE. ) );
#145 = EDGE_LOOP ( 'NONE', ( #1, #102, #32, #25 ) ) ;
#146 = FILL_AREA_STYLE ('',( #126 ) ) ;
#147 = CARTESIAN_POINT ( 'NONE',  ( -500.0000000000000000, -250.0000000000000000, 0.0000000000000000000 ) ) ;
#148 = LINE ( 'NONE', #158, #157 ) ;
#149 = VERTEX_POINT ( 'NONE', #142 ) ;
#150 =( GEOMETRIC_REPRESENTATION_CONTEXT ( 3 ) GLOBAL_UNCERTAINTY_ASSIGNED_CONTEXT ( ( #75 ) ) GLOBAL_UNIT_ASSIGNED_CONTEXT ( ( #33, #13, #165 ) ) REPRESENTATION_CONTEXT ( 'NONE', 'WORKASPACE' ) );
#151 =( GEOMETRIC_REPRESENTATION_CONTEXT ( 3 ) GLOBAL_UNCERTAINTY_ASSIGNED_CONTEXT ( ( #10 ) ) GLOBAL_UNIT_ASSIGNED_CONTEXT ( ( #144, #27, #44 ) ) REPRESENTATION_CONTEXT ( 'NONE', 'WORKASPACE' ) );
#152 = MANIFOLD_SOLID_BREP ( 'Importiert1', #167 ) ;
#153 = ORIENTED_EDGE ( 'NONE', *, *, #68, .F. ) ;
#154 = AXIS2_PLACEMENT_3D ( 'NONE', #108, #156, #225 ) ;
#155 = LINE ( 'NONE', #106, #70 ) ;
#156 = DIRECTION ( 'NONE',  ( 0.0000000000000000000, 0.0000000000000000000, 1.000000000000000000 ) ) ;
#157 = VECTOR ( 'NONE', #212, 1000.000000000000000 ) ;
#158 = CARTESIAN_POINT ( 'NONE',  ( -500.0000000000000000, -250.0000000000000000, 5.000000000000000000 ) ) ;
#159 =( NAMED_UNIT ( * ) SI_UNIT ( $, .STERADIAN. ) SOLID_ANGLE_UNIT ( ) );
#160 = AXIS2_PLACEMENT_3D ( 'NONE', #174, #60, #11 ) ;
#161 = ADVANCED_FACE ( 'NONE', ( #143 ), #228, .F. ) ;
#162 = SURFACE_STYLE_USAGE ( .BOTH. , #120 ) ;
#163 = CARTESIAN_POINT ( 'NONE',  ( -500.0000000000000000, 250.0000000000000000, 5.000000000000000000 ) ) ;
#164 = DIRECTION ( 'NONE',  ( 0.0000000000000000000, -0.0000000000000000000, 1.000000000000000000 ) ) ;
#165 =( NAMED_UNIT ( * ) SI_UNIT ( $, .STERADIAN. ) SOLID_ANGLE_UNIT ( ) );
#166 = UNCERTAINTY_MEASURE_WITH_UNIT (LENGTH_MEASURE( 1.000000000000000100E-005 ), #24, 'distance_accuracy_value', 'NONE');
#167 = CLOSED_SHELL ( 'NONE', ( #216, #161, #197, #83, #65, #127 ) ) ;
#168 = STYLED_ITEM ( 'NONE', ( #114 ), #219 ) ;
#169 = VECTOR ( 'NONE', #206, 1000.000000000000000 ) ;
#170 = VECTOR ( 'NONE', #189, 1000.000000000000000 ) ;
#171 = APPLICATION_CONTEXT ( 'automotive_design' ) ;
#172 = EDGE_LOOP ( 'NONE', ( #111, #59, #73, #123 ) ) ;
#173 =( LENGTH_UNIT ( ) NAMED_UNIT ( * ) SI_UNIT ( .MILLI., .METRE. ) );
#174 = CARTESIAN_POINT ( 'NONE',  ( -500.0000000000000000, -250.0000000000000000, 0.0000000000000000000 ) ) ;
#175 = CARTESIAN_POINT ( 'NONE',  ( 500.0000000000000000, 250.0000000000000000, 5.000000000000000000 ) ) ;
#176 = CARTESIAN_POINT ( 'NONE',  ( -500.0000000000000000, -250.0000000000000000, 5.000000000000000000 ) ) ;
#177 = LINE ( 'NONE', #58, #170 ) ;
#178 = VECTOR ( 'NONE', #105, 1000.000000000000000 ) ;
#179 = EDGE_LOOP ( 'NONE', ( #4, #208, #193, #184 ) ) ;
#180 = PRODUCT_DEFINITION ( 'UNKNOWN', '', #190, #54 ) ;
#181 = VECTOR ( 'NONE', #213, 1000.000000000000000 ) ;
#182 = STYLED_ITEM ( 'NONE', ( #195 ), #152 ) ;
#183 = FACE_OUTER_BOUND ( 'NONE', #179, .T. ) ;
#184 = ORIENTED_EDGE ( 'NONE', *, *, #69, .T. ) ;
#185 = STYLED_ITEM ( 'NONE', ( #117 ), #127 ) ;
#186 = PRESENTATION_LAYER_ASSIGNMENT (  '', '', ( #168 ) ) ;
#187 = COLOUR_RGB ( '',0.8745098039215686300, 0.9137254901960784000, 1.000000000000000000 ) ;
#188 = ORIENTED_EDGE ( 'NONE', *, *, #23, .F. ) ;
#189 = DIRECTION ( 'NONE',  ( 1.000000000000000000, 0.0000000000000000000, -0.0000000000000000000 ) ) ;
#190 = PRODUCT_DEFINITION_FORMATION_WITH_SPECIFIED_SOURCE ( 'ANY', '', #92, .NOT_KNOWN. ) ;
#191 =( NAMED_UNIT ( * ) SI_UNIT ( $, .STERADIAN. ) SOLID_ANGLE_UNIT ( ) );
#192 = SURFACE_STYLE_FILL_AREA ( #137 ) ;
#193 = ORIENTED_EDGE ( 'NONE', *, *, #3, .F. ) ;
#194 = EDGE_CURVE ( 'NONE', #20, #113, #87, .T. ) ;
#195 = PRESENTATION_STYLE_ASSIGNMENT (( #16 ) ) ;
#196 = LINE ( 'NONE', #221, #14 ) ;
#197 = ADVANCED_FACE ( 'NONE', ( #183 ), #6, .F. ) ;
#198 = ORIENTED_EDGE ( 'NONE', *, *, #205, .F. ) ;
#199 = AXIS2_PLACEMENT_3D ( 'NONE', #223, #7, #100 ) ;
#200 = LINE ( 'NONE', #141, #122 ) ;
#201 = VERTEX_POINT ( 'NONE', #91 ) ;
#202 = ORIENTED_EDGE ( 'NONE', *, *, #232, .T. ) ;
#203 = PRODUCT_RELATED_PRODUCT_CATEGORY ( 'part', '', ( #92 ) ) ;
#204 = VECTOR ( 'NONE', #207, 1000.000000000000000 ) ;
#205 = EDGE_CURVE ( 'NONE', #51, #230, #148, .T. ) ;
#206 = DIRECTION ( 'NONE',  ( -0.0000000000000000000, 0.0000000000000000000, 1.000000000000000000 ) ) ;
#207 = DIRECTION ( 'NONE',  ( 0.0000000000000000000, -1.000000000000000000, -0.0000000000000000000 ) ) ;
#208 = ORIENTED_EDGE ( 'NONE', *, *, #81, .F. ) ;
#209 = PRODUCT_CONTEXT ( 'NONE', #171, 'mechanical' ) ;
#210 = APPLICATION_CONTEXT ( 'automotive_design' ) ;
#211 = COLOUR_RGB ( '',0.7529411764705882200, 0.7529411764705882200, 0.7529411764705882200 ) ;
#212 = DIRECTION ( 'NONE',  ( 1.000000000000000000, 0.0000000000000000000, -0.0000000000000000000 ) ) ;
#213 = DIRECTION ( 'NONE',  ( -0.0000000000000000000, -0.0000000000000000000, 1.000000000000000000 ) ) ;
#214 =( GEOMETRIC_REPRESENTATION_CONTEXT ( 3 ) GLOBAL_UNCERTAINTY_ASSIGNED_CONTEXT ( ( #139 ) ) GLOBAL_UNIT_ASSIGNED_CONTEXT ( ( #5, #222, #159 ) ) REPRESENTATION_CONTEXT ( 'NONE', 'WORKASPACE' ) );
#215 = PLANE ( 'NONE',  #17 ) ;
#216 = ADVANCED_FACE ( 'NONE', ( #133 ), #99, .F. ) ;
#217 =( GEOMETRIC_REPRESENTATION_CONTEXT ( 3 ) GLOBAL_UNCERTAINTY_ASSIGNED_CONTEXT ( ( #36 ) ) GLOBAL_UNIT_ASSIGNED_CONTEXT ( ( #173, #134, #79 ) ) REPRESENTATION_CONTEXT ( 'NONE', 'WORKASPACE' ) );
#218 = SHAPE_DEFINITION_REPRESENTATION ( #119, #219 ) ;
#219 = ADVANCED_BREP_SHAPE_REPRESENTATION ( '6510050_CNAJF00', ( #152, #154 ), #217 ) ;
#220 = LINE ( 'NONE', #55, #204 ) ;
#221 = CARTESIAN_POINT ( 'NONE',  ( 500.0000000000000000, -250.0000000000000000, 5.000000000000000000 ) ) ;
#222 =( NAMED_UNIT ( * ) PLANE_ANGLE_UNIT ( ) SI_UNIT ( $, .RADIAN. ) );
#223 = CARTESIAN_POINT ( 'NONE',  ( 500.0000000000000000, 250.0000000000000000, 5.000000000000000000 ) ) ;
#224 = FILL_AREA_STYLE_COLOUR ( '', #187 ) ;
#225 = DIRECTION ( 'NONE',  ( 1.000000000000000000, 0.0000000000000000000, 0.0000000000000000000 ) ) ;
#226 = PLANE ( 'NONE',  #112 ) ;
#227 = CARTESIAN_POINT ( 'NONE',  ( -500.0000000000000000, -250.0000000000000000, 5.000000000000000000 ) ) ;
#228 = PLANE ( 'NONE',  #39 ) ;
#229 = CARTESIAN_POINT ( 'NONE',  ( -500.0000000000000000, -250.0000000000000000, 5.000000000000000000 ) ) ;
#230 = VERTEX_POINT ( 'NONE', #118 ) ;
#231 = DIRECTION ( 'NONE',  ( 1.000000000000000000, 0.0000000000000000000, -0.0000000000000000000 ) ) ;
#232 = EDGE_CURVE ( 'NONE', #113, #149, #177, .T. ) ;
ENDSEC;
END-ISO-10303-21;
