ISO-10303-21;
HEADER;
FILE_DESCRIPTION (( 'STEP AP214' ),
    '1' );
FILE_NAME ('6340060',
    '2019-02-01T14:36:37',
    ( '' ),
    ('JUGARD+KÜNSTNER GmbH'),
    'SwSTEP 2.0',
    'SolidWorks 2017',
    '' );
FILE_SCHEMA (( 'AUTOMOTIVE_DESIGN' ));
ENDSEC;

DATA;
#1 = COLOUR_RGB ( '',0.0000000000000000000, 0.0000000000000000000, 0.0000000000000000000 ) ;
#2 = DIRECTION ( 'NONE',  ( -0.0000000000000000000, -0.0000000000000000000, 1.000000000000000000 ) ) ;
#3 = DIRECTION ( 'NONE',  ( 0.0000000000000000000, 0.0000000000000000000, -1.000000000000000000 ) ) ;
#4 = ORIENTED_EDGE ( 'NONE', *, *, #246, .T. ) ;
#5 = AXIS2_PLACEMENT_3D ( 'NONE', #21, #371, #119 ) ;
#6 = APPLICATION_CONTEXT ( 'automotive_design' ) ;
#7 = DIRECTION ( 'NONE',  ( 0.0000000000000000000, 0.0000000000000000000, 1.000000000000000000 ) ) ;
#8 = CARTESIAN_POINT ( 'NONE',  ( 2.054302088365888700, -0.5484416209328049100, 61.21236899185679200 ) ) ;
#9 = AXIS2_PLACEMENT_3D ( 'NONE', #150, #13, #111 ) ;
#10 = ADVANCED_FACE ( 'NONE', ( #287 ), #68, .T. ) ;
#11 = CARTESIAN_POINT ( 'NONE',  ( -0.9600527418674930100, -2.470041974402994900, 61.20704318809239200 ) ) ;
#12 = CYLINDRICAL_SURFACE ( 'NONE', #42, 10.00000000000000000 ) ;
#13 = DIRECTION ( 'NONE',  ( 0.0000000000000000000, 0.0000000000000000000, -1.000000000000000000 ) ) ;
#14 = ADVANCED_FACE ( 'NONE', ( #187 ), #12, .T. ) ;
#15 = AXIS2_PLACEMENT_3D ( 'NONE', #163, #202, #55 ) ;
#16 = EDGE_CURVE ( 'NONE', #344, #259, #102, .T. ) ;
#17 = FACE_OUTER_BOUND ( 'NONE', #324, .T. ) ;
#18 = ORIENTED_EDGE ( 'NONE', *, *, #240, .F. ) ;
#19 = MECHANICAL_DESIGN_GEOMETRIC_PRESENTATION_REPRESENTATION (  '', ( #379 ), #199 ) ;
#20 = CONICAL_SURFACE ( 'NONE', #31, 2.899999999840474600, 0.7853981624269509300 ) ;
#21 = CARTESIAN_POINT ( 'NONE',  ( -6.938893903907228400E-015, 0.0000000000000000000, 36.12989862342200100 ) ) ;
#22 = CARTESIAN_POINT ( 'NONE',  ( -2.054302088365894000, -1.172060916692752000, 60.31000996118140000 ) ) ;
#23 = PRESENTATION_LAYER_ASSIGNMENT (  '', '', ( #314 ) ) ;
#24 = ORIENTED_EDGE ( 'NONE', *, *, #37, .T. ) ;
#25 = CARTESIAN_POINT ( 'NONE',  ( -4.336808689942017700E-015, 0.0000000000000000000, 38.99999999994840000 ) ) ;
#26 =( LENGTH_UNIT ( ) NAMED_UNIT ( * ) SI_UNIT ( .MILLI., .METRE. ) );
#27 = CARTESIAN_POINT ( 'NONE',  ( -6.938893903907228400E-015, 0.0000000000000000000, 60.94812459792556300 ) ) ;
#28 = SURFACE_STYLE_FILL_AREA ( #155 ) ;
#29 = ORIENTED_EDGE ( 'NONE', *, *, #90, .T. ) ;
#30 =( LENGTH_UNIT ( ) NAMED_UNIT ( * ) SI_UNIT ( .MILLI., .METRE. ) );
#31 = AXIS2_PLACEMENT_3D ( 'NONE', #174, #177, #173 ) ;
#32 = FACE_OUTER_BOUND ( 'NONE', #254, .T. ) ;
#33 = DIRECTION ( 'NONE',  ( 0.0000000000000000000, 0.0000000000000000000, 1.000000000000000000 ) ) ;
#34 = CARTESIAN_POINT ( 'NONE',  ( -4.336808689942017700E-015, 0.0000000000000000000, 38.99999999994840000 ) ) ;
#35 = VERTEX_POINT ( 'NONE', #248 ) ;
#36 = AXIS2_PLACEMENT_3D ( 'NONE', #179, #38, #247 ) ;
#37 = EDGE_CURVE ( 'NONE', #50, #59, #300, .T. ) ;
#38 = DIRECTION ( 'NONE',  ( 0.0000000000000000000, 0.0000000000000000000, 1.000000000000000000 ) ) ;
#39 =( NAMED_UNIT ( * ) PLANE_ANGLE_UNIT ( ) SI_UNIT ( $, .RADIAN. ) );
#40 = ORIENTED_EDGE ( 'NONE', *, *, #144, .T. ) ;
#41 = CARTESIAN_POINT ( 'NONE',  ( 32.14341672259205000, 0.0000000000000000000, 36.12989862342200100 ) ) ;
#42 = AXIS2_PLACEMENT_3D ( 'NONE', #326, #101, #244 ) ;
#43 = CARTESIAN_POINT ( 'NONE',  ( -2.054302088365894000, 0.5484416209328001300, 61.21236899185679200 ) ) ;
#44 = VERTEX_POINT ( 'NONE', #188 ) ;
#45 =( BOUNDED_SURFACE ( )  B_SPLINE_SURFACE ( 3, 3, ( 
 ( #296, #225, #8, #304 ),
 ( #226, #139, #77, #311 ),
 ( #117, #52, #222, #11 ),
 ( #85, #43, #257, #22 ) ),
 .UNSPECIFIED., .F., .F., .T. ) 
 B_SPLINE_SURFACE_WITH_KNOTS ( ( 4, 4 ),
 ( 4, 4 ),
 ( 0.0000000000000000000, 1.000000000000000000 ),
 ( 0.0000000000000000000, 1.000000000000000000 ),
 .UNSPECIFIED. ) 
 GEOMETRIC_REPRESENTATION_ITEM ( )  RATIONAL_B_SPLINE_SURFACE ( (
 ( 1.000000000000000000, 0.7123583574245017100, 0.7123583574245017100, 1.000000000000000000),
 ( 0.7132601501211551800, 0.5080968289566596400, 0.5080968289566596400, 0.7132601501211551800),
 ( 0.7132601501211551800, 0.5080968289566596400, 0.5080968289566596400, 0.7132601501211551800),
 ( 1.000000000000000000, 0.7123583574245017100, 0.7123583574245017100, 1.000000000000000000) ) ) 
 REPRESENTATION_ITEM ( '' )  SURFACE ( )  );
#46 = EDGE_CURVE ( 'NONE', #286, #259, #232, .T. ) ;
#47 = VECTOR ( 'NONE', #262, 1000.000000000000100 ) ;
#48 = ADVANCED_FACE ( 'NONE', ( #195 ), #45, .T. ) ;
#49 = COLOUR_RGB ( '',0.0000000000000000000, 0.0000000000000000000, 0.0000000000000000000 ) ;
#50 = VERTEX_POINT ( 'NONE', #327 ) ;
#51 = STYLED_ITEM ( 'NONE', ( #137 ), #168 ) ;
#52 = CARTESIAN_POINT ( 'NONE',  ( -0.9600527418674929000, 1.155804962796778100, 63.10870601978127300 ) ) ;
#53 = FACE_OUTER_BOUND ( 'NONE', #349, .T. ) ;
#54 = ORIENTED_EDGE ( 'NONE', *, *, #211, .T. ) ;
#55 = DIRECTION ( 'NONE',  ( -1.000000000000000000, 0.0000000000000000000, -0.0000000000000000000 ) ) ;
#56 = SURFACE_STYLE_USAGE ( .BOTH. , #154 ) ;
#57 = MECHANICAL_DESIGN_GEOMETRIC_PRESENTATION_REPRESENTATION (  '', ( #51 ), #283 ) ;
#58 = EDGE_CURVE ( 'NONE', #367, #266, #241, .T. ) ;
#59 = VERTEX_POINT ( 'NONE', #141 ) ;
#60 = SURFACE_SIDE_STYLE ('',( #272 ) ) ;
#61 = CIRCLE ( 'NONE', #335, 10.00000000000000000 ) ;
#62 = CARTESIAN_POINT ( 'NONE',  ( 0.0000000000000000000, 0.0000000000000000000, 37.99999999994830100 ) ) ;
#63 = DIRECTION ( 'NONE',  ( 1.000000000000000000, 0.0000000000000000000, 0.0000000000000000000 ) ) ;
#64 = MECHANICAL_DESIGN_GEOMETRIC_PRESENTATION_REPRESENTATION (  '', ( #332 ), #124 ) ;
#65 = CIRCLE ( 'NONE', #9, 2.037875155335357100 ) ;
#66 = DIRECTION ( 'NONE',  ( 0.0000000000000000000, 0.0000000000000000000, 1.000000000000000000 ) ) ;
#67 = DIRECTION ( 'NONE',  ( 0.0000000000000000000, 0.0000000000000000000, 1.000000000000000000 ) ) ;
#68 = TOROIDAL_SURFACE ( 'NONE', #180, -32.14341672259205800, 42.24103520234311300 ) ;
#69 = UNCERTAINTY_MEASURE_WITH_UNIT (LENGTH_MEASURE( 1.000000000000000100E-005 ), #193, 'distance_accuracy_value', 'NONE');
#70 = PRODUCT_DEFINITION_SHAPE ( 'NONE', 'NONE',  #170 ) ;
#71 = SHAPE_DEFINITION_REPRESENTATION ( #70, #364 ) ;
#72 = DIRECTION ( 'NONE',  ( -0.0000000000000000000, -1.000000000000000000, -0.0000000000000000000 ) ) ;
#73 = FACE_OUTER_BOUND ( 'NONE', #156, .T. ) ;
#74 = PRESENTATION_LAYER_ASSIGNMENT (  '', '', ( #51 ) ) ;
#75 = ORIENTED_EDGE ( 'NONE', *, *, #16, .F. ) ;
#76 = FILL_AREA_STYLE_COLOUR ( '', #1 ) ;
#77 = CARTESIAN_POINT ( 'NONE',  ( 0.9600527418674818000, -1.155804962796775500, 63.10870601978125900 ) ) ;
#78 = DIRECTION ( 'NONE',  ( 0.0000000000000000000, 0.0000000000000000000, 1.000000000000000000 ) ) ;
#79 = EDGE_CURVE ( 'NONE', #221, #121, #252, .T. ) ;
#80 = CIRCLE ( 'NONE', #224, 2.899999999999999900 ) ;
#81 = AXIS2_PLACEMENT_3D ( 'NONE', #27, #87, #231 ) ;
#82 = ORIENTED_EDGE ( 'NONE', *, *, #211, .F. ) ;
#83 = PRESENTATION_LAYER_ASSIGNMENT (  '', '', ( #379 ) ) ;
#84 = ADVANCED_FACE ( 'NONE', ( #227 ), #158, .T. ) ;
#85 = CARTESIAN_POINT ( 'NONE',  ( -2.054302088365894000, 1.172060916692761100, 60.31000996118140000 ) ) ;
#86 = DIRECTION ( 'NONE',  ( 1.000000000000000000, 0.0000000000000000000, 0.0000000000000000000 ) ) ;
#87 = DIRECTION ( 'NONE',  ( 0.0000000000000000000, 0.0000000000000000000, -1.000000000000000000 ) ) ;
#88 = FACE_OUTER_BOUND ( 'NONE', #336, .T. ) ;
#89 = FILL_AREA_STYLE_COLOUR ( '', #200 ) ;
#90 = EDGE_CURVE ( 'NONE', #266, #367, #353, .T. ) ;
#91 = CARTESIAN_POINT ( 'NONE',  ( -10.00000000000000000, 1.224646799147353300E-015, 37.99999999994830100 ) ) ;
#92 = ORIENTED_EDGE ( 'NONE', *, *, #373, .T. ) ;
#93 = AXIS2_PLACEMENT_3D ( 'NONE', #207, #284, #370 ) ;
#94 = PLANE ( 'NONE',  #308 ) ;
#95 = CARTESIAN_POINT ( 'NONE',  ( -2.899999999999999900, 3.551475717527323800E-016, 18.99999999994840000 ) ) ;
#96 = DIRECTION ( 'NONE',  ( 1.000000000000000000, 0.0000000000000000000, 0.0000000000000000000 ) ) ;
#97 = FACE_BOUND ( 'NONE', #301, .T. ) ;
#98 = DIRECTION ( 'NONE',  ( 1.000000000000000000, 0.0000000000000000000, 0.0000000000000000000 ) ) ;
#99 = SURFACE_STYLE_FILL_AREA ( #251 ) ;
#100 = SURFACE_STYLE_USAGE ( .BOTH. , #330 ) ;
#101 = DIRECTION ( 'NONE',  ( 0.0000000000000000000, 0.0000000000000000000, 1.000000000000000000 ) ) ;
#102 = CIRCLE ( 'NONE', #319, 42.24103520234311300 ) ;
#103 = DIRECTION ( 'NONE',  ( 0.0000000000000000000, 0.0000000000000000000, -1.000000000000000000 ) ) ;
#104 = ORIENTED_EDGE ( 'NONE', *, *, #182, .T. ) ;
#105 = ORIENTED_EDGE ( 'NONE', *, *, #361, .F. ) ;
#106 =( LENGTH_UNIT ( ) NAMED_UNIT ( * ) SI_UNIT ( .MILLI., .METRE. ) );
#107 = DIRECTION ( 'NONE',  ( -0.0000000000000000000, 0.0000000000000000000, 1.000000000000000000 ) ) ;
#108 = DIRECTION ( 'NONE',  ( 1.000000000000000000, 0.0000000000000000000, 0.0000000000000000000 ) ) ;
#109 = ORIENTED_EDGE ( 'NONE', *, *, #90, .F. ) ;
#110 = CARTESIAN_POINT ( 'NONE',  ( 0.0000000000000000000, 0.0000000000000000000, 19.40999999994840400 ) ) ;
#111 = DIRECTION ( 'NONE',  ( -1.000000000000000000, 0.0000000000000000000, 0.0000000000000000000 ) ) ;
#112 = CIRCLE ( 'NONE', #255, 9.999999999999984000 ) ;
#113 = VECTOR ( 'NONE', #7, 1000.000000000000000 ) ;
#114 = EDGE_LOOP ( 'NONE', ( #189, #317, #328, #75 ) ) ;
#115 = LINE ( 'NONE', #322, #277 ) ;
#116 = ORIENTED_EDGE ( 'NONE', *, *, #240, .T. ) ;
#117 = CARTESIAN_POINT ( 'NONE',  ( -0.9600527418674930100, 2.470041974402997600, 61.20704318809239200 ) ) ;
#118 = CLOSED_SHELL ( 'NONE', ( #147, #338, #305, #166, #10, #14, #48, #140, #84, #142, #312 ) ) ;
#119 = DIRECTION ( 'NONE',  ( -1.000000000000000000, 0.0000000000000000000, 0.0000000000000000000 ) ) ;
#120 =( NAMED_UNIT ( * ) PLANE_ANGLE_UNIT ( ) SI_UNIT ( $, .RADIAN. ) );
#121 = VERTEX_POINT ( 'NONE', #279 ) ;
#122 = CYLINDRICAL_SURFACE ( 'NONE', #302, 2.899999999999999900 ) ;
#123 = CARTESIAN_POINT ( 'NONE',  ( 0.0000000000000000000, 0.0000000000000000000, 18.99999999994840000 ) ) ;
#124 =( GEOMETRIC_REPRESENTATION_CONTEXT ( 3 ) GLOBAL_UNCERTAINTY_ASSIGNED_CONTEXT ( ( #69 ) ) GLOBAL_UNIT_ASSIGNED_CONTEXT ( ( #193, #223, #164 ) ) REPRESENTATION_CONTEXT ( 'NONE', 'WORKASPACE' ) );
#125 = LINE ( 'NONE', #343, #348 ) ;
#126 = AXIS2_PLACEMENT_3D ( 'NONE', #260, #228, #342 ) ;
#127 = CIRCLE ( 'NONE', #93, 2.490000000193504100 ) ;
#128 = DIRECTION ( 'NONE',  ( 0.0000000000000000000, 0.0000000000000000000, 1.000000000000000000 ) ) ;
#129 = CONICAL_SURFACE ( 'NONE', #352, 2.899999999840474600, 0.7853981624269509300 ) ;
#130 = ORIENTED_EDGE ( 'NONE', *, *, #162, .T. ) ;
#131 = APPLICATION_PROTOCOL_DEFINITION ( 'draft international standard', 'automotive_design', 1998, #6 ) ;
#132 = CARTESIAN_POINT ( 'NONE',  ( -6.938893903907228400E-015, 0.0000000000000000000, 36.12989862342200100 ) ) ;
#133 = LINE ( 'NONE', #238, #264 ) ;
#134 = DIRECTION ( 'NONE',  ( 1.000000000000000000, 0.0000000000000000000, 0.0000000000000000000 ) ) ;
#135 =( GEOMETRIC_REPRESENTATION_CONTEXT ( 3 ) GLOBAL_UNCERTAINTY_ASSIGNED_CONTEXT ( ( #212 ) ) GLOBAL_UNIT_ASSIGNED_CONTEXT ( ( #271, #295, #161 ) ) REPRESENTATION_CONTEXT ( 'NONE', 'WORKASPACE' ) );
#136 = EDGE_CURVE ( 'NONE', #344, #221, #65, .T. ) ;
#137 = PRESENTATION_STYLE_ASSIGNMENT (( #206 ) ) ;
#138 = ORIENTED_EDGE ( 'NONE', *, *, #16, .T. ) ;
#139 = CARTESIAN_POINT ( 'NONE',  ( 0.9600527418674818000, 1.155804962796776400, 63.10870601978127300 ) ) ;
#140 = ADVANCED_FACE ( 'NONE', ( #97, #245 ), #369, .T. ) ;
#141 = CARTESIAN_POINT ( 'NONE',  ( -2.490000000193504100, 3.300423123590896300E-016, 18.99999999972124000 ) ) ;
#142 = ADVANCED_FACE ( 'NONE', ( #73 ), #129, .T. ) ;
#143 = CARTESIAN_POINT ( 'NONE',  ( 0.0000000000000000000, 0.0000000000000000000, 19.41000000016401800 ) ) ;
#144 = EDGE_CURVE ( 'NONE', #286, #44, #292, .T. ) ;
#145 = EDGE_LOOP ( 'NONE', ( #148, #29, #130, #191 ) ) ;
#146 = PRODUCT_DEFINITION_FORMATION_WITH_SPECIFIED_SOURCE ( 'ANY', '', #217, .NOT_KNOWN. ) ;
#147 = ADVANCED_FACE ( 'NONE', ( #208 ), #377, .T. ) ;
#148 = ORIENTED_EDGE ( 'NONE', *, *, #289, .F. ) ;
#149 = AXIS2_PLACEMENT_3D ( 'NONE', #356, #107, #134 ) ;
#150 = CARTESIAN_POINT ( 'NONE',  ( -6.938893903907228400E-015, 0.0000000000000000000, 60.94812459792556300 ) ) ;
#151 =( NAMED_UNIT ( * ) SI_UNIT ( $, .STERADIAN. ) SOLID_ANGLE_UNIT ( ) );
#152 = PRODUCT_RELATED_PRODUCT_CATEGORY ( 'part', '', ( #217 ) ) ;
#153 = ORIENTED_EDGE ( 'NONE', *, *, #162, .F. ) ;
#154 = SURFACE_SIDE_STYLE ('',( #28 ) ) ;
#155 = FILL_AREA_STYLE ('',( #281 ) ) ;
#156 = EDGE_LOOP ( 'NONE', ( #213, #104, #181, #109 ) ) ;
#157 = DIRECTION ( 'NONE',  ( 1.000000000000000000, 0.0000000000000000000, 0.0000000000000000000 ) ) ;
#158 = CYLINDRICAL_SURFACE ( 'NONE', #297, 2.899999999999999900 ) ;
#159 = SURFACE_STYLE_FILL_AREA ( #198 ) ;
#160 = ORIENTED_EDGE ( 'NONE', *, *, #58, .T. ) ;
#161 =( NAMED_UNIT ( * ) SI_UNIT ( $, .STERADIAN. ) SOLID_ANGLE_UNIT ( ) );
#162 = EDGE_CURVE ( 'NONE', #367, #196, #125, .T. ) ;
#163 = CARTESIAN_POINT ( 'NONE',  ( 0.0000000000000000000, 0.0000000000000000000, 37.99999999994830100 ) ) ;
#164 =( NAMED_UNIT ( * ) SI_UNIT ( $, .STERADIAN. ) SOLID_ANGLE_UNIT ( ) );
#165 = CARTESIAN_POINT ( 'NONE',  ( -32.14341672259206500, -3.936433240298187200E-015, 36.12989862342200100 ) ) ;
#166 = ADVANCED_FACE ( 'NONE', ( #53 ), #20, .T. ) ;
#167 = ORIENTED_EDGE ( 'NONE', *, *, #171, .F. ) ;
#168 = MANIFOLD_SOLID_BREP ( 'Importiert1', #118 ) ;
#169 = SURFACE_SIDE_STYLE ('',( #159 ) ) ;
#170 = PRODUCT_DEFINITION ( 'UNKNOWN', '', #146, #285 ) ;
#171 = EDGE_CURVE ( 'NONE', #44, #286, #61, .T. ) ;
#172 = DIRECTION ( 'NONE',  ( 1.000000000000000000, 0.0000000000000000000, 0.0000000000000000000 ) ) ;
#173 = DIRECTION ( 'NONE',  ( 1.000000000000000000, 0.0000000000000000000, 0.0000000000000000000 ) ) ;
#174 = CARTESIAN_POINT ( 'NONE',  ( 0.0000000000000000000, 0.0000000000000000000, 19.41000000016401800 ) ) ;
#175 = DIRECTION ( 'NONE',  ( 0.0000000000000000000, 0.0000000000000000000, 1.000000000000000000 ) ) ;
#176 = AXIS2_PLACEMENT_3D ( 'NONE', #34, #2, #96 ) ;
#177 = DIRECTION ( 'NONE',  ( -0.0000000000000000000, 0.0000000000000000000, 1.000000000000000000 ) ) ;
#178 = ORIENTED_EDGE ( 'NONE', *, *, #136, .F. ) ;
#179 = CARTESIAN_POINT ( 'NONE',  ( 0.0000000000000000000, 0.0000000000000000000, 0.0000000000000000000 ) ) ;
#180 = AXIS2_PLACEMENT_3D ( 'NONE', #132, #3, #219 ) ;
#181 = ORIENTED_EDGE ( 'NONE', *, *, #205, .T. ) ;
#182 = EDGE_CURVE ( 'NONE', #59, #50, #127, .T. ) ;
#183 = CARTESIAN_POINT ( 'NONE',  ( 0.0000000000000000000, 0.0000000000000000000, 37.99999999994830100 ) ) ;
#184 = DIRECTION ( 'NONE',  ( -0.7071067805003021800, 8.659560553950853700E-017, 0.7071067818727928600 ) ) ;
#185 = FILL_AREA_STYLE_COLOUR ( '', #366 ) ;
#186 =( LENGTH_UNIT ( ) NAMED_UNIT ( * ) SI_UNIT ( .MILLI., .METRE. ) );
#187 = FACE_OUTER_BOUND ( 'NONE', #354, .T. ) ;
#188 = CARTESIAN_POINT ( 'NONE',  ( 10.00000000000000000, 0.0000000000000000000, 37.99999999994830100 ) ) ;
#189 = ORIENTED_EDGE ( 'NONE', *, *, #136, .T. ) ;
#190 = CARTESIAN_POINT ( 'NONE',  ( -10.00000000000000000, 1.224646799147353300E-015, 37.99999999994830100 ) ) ;
#191 = ORIENTED_EDGE ( 'NONE', *, *, #351, .F. ) ;
#192 = ORIENTED_EDGE ( 'NONE', *, *, #58, .F. ) ;
#193 =( LENGTH_UNIT ( ) NAMED_UNIT ( * ) SI_UNIT ( .MILLI., .METRE. ) );
#194 = CARTESIAN_POINT ( 'NONE',  ( 0.0000000000000000000, 0.0000000000000000000, 18.99999999994840000 ) ) ;
#195 = FACE_OUTER_BOUND ( 'NONE', #201, .T. ) ;
#196 = VERTEX_POINT ( 'NONE', #204 ) ;
#197 = PRESENTATION_STYLE_ASSIGNMENT (( #100 ) ) ;
#198 = FILL_AREA_STYLE ('',( #76 ) ) ;
#199 =( GEOMETRIC_REPRESENTATION_CONTEXT ( 3 ) GLOBAL_UNCERTAINTY_ASSIGNED_CONTEXT ( ( #376 ) ) GLOBAL_UNIT_ASSIGNED_CONTEXT ( ( #186, #39, #270 ) ) REPRESENTATION_CONTEXT ( 'NONE', 'WORKASPACE' ) );
#200 = COLOUR_RGB ( '',0.8745098039215686300, 0.9137254901960784000, 1.000000000000000000 ) ;
#201 = EDGE_LOOP ( 'NONE', ( #178, #82 ) ) ;
#202 = DIRECTION ( 'NONE',  ( 0.0000000000000000000, 0.0000000000000000000, -1.000000000000000000 ) ) ;
#203 = ORIENTED_EDGE ( 'NONE', *, *, #351, .T. ) ;
#204 = CARTESIAN_POINT ( 'NONE',  ( 2.899999999999999900, 0.0000000000000000000, 37.99999999994830100 ) ) ;
#205 = EDGE_CURVE ( 'NONE', #50, #367, #346, .T. ) ;
#206 = SURFACE_STYLE_USAGE ( .BOTH. , #60 ) ;
#207 = CARTESIAN_POINT ( 'NONE',  ( 0.0000000000000000000, 0.0000000000000000000, 18.99999999972124000 ) ) ;
#208 = FACE_OUTER_BOUND ( 'NONE', #114, .T. ) ;
#209 = ORIENTED_EDGE ( 'NONE', *, *, #289, .T. ) ;
#210 =( NAMED_UNIT ( * ) SI_UNIT ( $, .STERADIAN. ) SOLID_ANGLE_UNIT ( ) );
#211 = EDGE_CURVE ( 'NONE', #221, #344, #256, .T. ) ;
#212 = UNCERTAINTY_MEASURE_WITH_UNIT (LENGTH_MEASURE( 1.000000000000000100E-005 ), #271, 'distance_accuracy_value', 'NONE');
#213 = ORIENTED_EDGE ( 'NONE', *, *, #373, .F. ) ;
#214 = CARTESIAN_POINT ( 'NONE',  ( 2.899999999624859100, 0.0000000000000000000, 19.40999999994840400 ) ) ;
#215 = DIRECTION ( 'NONE',  ( 0.0000000000000000000, 0.0000000000000000000, 1.000000000000000000 ) ) ;
#216 = EDGE_CURVE ( 'NONE', #121, #259, #112, .T. ) ;
#217 = PRODUCT ( '6340060_CNAJF00', '6340060_CNAJF00', '', ( #298 ) ) ;
#218 =( NAMED_UNIT ( * ) SI_UNIT ( $, .STERADIAN. ) SOLID_ANGLE_UNIT ( ) );
#219 = DIRECTION ( 'NONE',  ( -1.000000000000000000, 0.0000000000000000000, 0.0000000000000000000 ) ) ;
#220 =( NAMED_UNIT ( * ) PLANE_ANGLE_UNIT ( ) SI_UNIT ( $, .RADIAN. ) );
#221 = VERTEX_POINT ( 'NONE', #229 ) ;
#222 = CARTESIAN_POINT ( 'NONE',  ( -0.9600527418674929000, -1.155804962796775500, 63.10870601978125900 ) ) ;
#223 =( NAMED_UNIT ( * ) PLANE_ANGLE_UNIT ( ) SI_UNIT ( $, .RADIAN. ) );
#224 = AXIS2_PLACEMENT_3D ( 'NONE', #183, #33, #236 ) ;
#225 = CARTESIAN_POINT ( 'NONE',  ( 2.054302088365888700, 0.5484416209328013500, 61.21236899185680600 ) ) ;
#226 = CARTESIAN_POINT ( 'NONE',  ( 0.9600527418674818000, 2.470041974403001100, 61.20704318809239900 ) ) ;
#227 = FACE_OUTER_BOUND ( 'NONE', #145, .T. ) ;
#228 = DIRECTION ( 'NONE',  ( 0.0000000000000000000, 0.0000000000000000000, 1.000000000000000000 ) ) ;
#229 = CARTESIAN_POINT ( 'NONE',  ( 2.037875155335350500, 7.371072638758443800E-016, 60.94812459792556300 ) ) ;
#230 = MECHANICAL_DESIGN_GEOMETRIC_PRESENTATION_REPRESENTATION (  '', ( #314 ), #365 ) ;
#231 = DIRECTION ( 'NONE',  ( -1.000000000000000000, 0.0000000000000000000, 0.0000000000000000000 ) ) ;
#232 = LINE ( 'NONE', #190, #113 ) ;
#233 = ORIENTED_EDGE ( 'NONE', *, *, #144, .F. ) ;
#234 = UNCERTAINTY_MEASURE_WITH_UNIT (LENGTH_MEASURE( 1.000000000000000100E-005 ), #106, 'distance_accuracy_value', 'NONE');
#235 = DIRECTION ( 'NONE',  ( -0.0000000000000000000, -0.0000000000000000000, 1.000000000000000000 ) ) ;
#236 = DIRECTION ( 'NONE',  ( 1.000000000000000000, 0.0000000000000000000, 0.0000000000000000000 ) ) ;
#237 = AXIS2_PLACEMENT_3D ( 'NONE', #110, #360, #333 ) ;
#238 = CARTESIAN_POINT ( 'NONE',  ( 10.00000000000000000, 0.0000000000000000000, 37.99999999994830100 ) ) ;
#239 = AXIS2_PLACEMENT_3D ( 'NONE', #291, #66, #63 ) ;
#240 = EDGE_CURVE ( 'NONE', #259, #121, #331, .T. ) ;
#241 = CIRCLE ( 'NONE', #237, 2.899999999999999900 ) ;
#242 = CYLINDRICAL_SURFACE ( 'NONE', #239, 10.00000000000000000 ) ;
#243 = APPLICATION_CONTEXT ( 'automotive_design' ) ;
#244 = DIRECTION ( 'NONE',  ( 1.000000000000000000, 0.0000000000000000000, 0.0000000000000000000 ) ) ;
#245 = FACE_OUTER_BOUND ( 'NONE', #334, .T. ) ;
#246 = EDGE_CURVE ( 'NONE', #196, #35, #80, .T. ) ;
#247 = DIRECTION ( 'NONE',  ( 1.000000000000000000, 0.0000000000000000000, 0.0000000000000000000 ) ) ;
#248 = CARTESIAN_POINT ( 'NONE',  ( -2.899999999999999900, 3.551475717527323800E-016, 37.99999999994830100 ) ) ;
#249 = VECTOR ( 'NONE', #67, 1000.000000000000000 ) ;
#250 = MECHANICAL_DESIGN_GEOMETRIC_PRESENTATION_REPRESENTATION (  '', ( #290 ), #372 ) ;
#251 = FILL_AREA_STYLE ('',( #318 ) ) ;
#252 = CIRCLE ( 'NONE', #274, 42.24103520234311300 ) ;
#253 = CARTESIAN_POINT ( 'NONE',  ( 0.0000000000000000000, 0.0000000000000000000, 19.40999999994840400 ) ) ;
#254 = EDGE_LOOP ( 'NONE', ( #273, #275, #359, #105 ) ) ;
#255 = AXIS2_PLACEMENT_3D ( 'NONE', #25, #235, #98 ) ;
#256 = CIRCLE ( 'NONE', #81, 2.037875155335357100 ) ;
#257 = CARTESIAN_POINT ( 'NONE',  ( -2.054302088365894000, -0.5484416209327910300, 61.21236899185679200 ) ) ;
#258 = DIRECTION ( 'NONE',  ( 0.0000000000000000000, 0.0000000000000000000, 1.000000000000000000 ) ) ;
#259 = VERTEX_POINT ( 'NONE', #263 ) ;
#260 = CARTESIAN_POINT ( 'NONE',  ( 0.0000000000000000000, 0.0000000000000000000, 37.99999999994830100 ) ) ;
#261 = PRESENTATION_LAYER_ASSIGNMENT (  '', '', ( #290 ) ) ;
#262 = DIRECTION ( 'NONE',  ( 0.7071067805003021800, 0.0000000000000000000, 0.7071067818727928600 ) ) ;
#263 = CARTESIAN_POINT ( 'NONE',  ( -9.999999999999987600, 1.224646799147352500E-015, 38.99999999994840000 ) ) ;
#264 = VECTOR ( 'NONE', #267, 1000.000000000000000 ) ;
#265 = DIRECTION ( 'NONE',  ( 1.000000000000000000, 0.0000000000000000000, 0.0000000000000000000 ) ) ;
#266 = VERTEX_POINT ( 'NONE', #293 ) ;
#267 = DIRECTION ( 'NONE',  ( 0.0000000000000000000, 0.0000000000000000000, 1.000000000000000000 ) ) ;
#268 = APPLICATION_PROTOCOL_DEFINITION ( 'draft international standard', 'automotive_design', 1998, #243 ) ;
#269 = ORIENTED_EDGE ( 'NONE', *, *, #361, .T. ) ;
#270 =( NAMED_UNIT ( * ) SI_UNIT ( $, .STERADIAN. ) SOLID_ANGLE_UNIT ( ) );
#271 =( LENGTH_UNIT ( ) NAMED_UNIT ( * ) SI_UNIT ( .MILLI., .METRE. ) );
#272 = SURFACE_STYLE_FILL_AREA ( #282 ) ;
#273 = ORIENTED_EDGE ( 'NONE', *, *, #171, .T. ) ;
#274 = AXIS2_PLACEMENT_3D ( 'NONE', #165, #339, #363 ) ;
#275 = ORIENTED_EDGE ( 'NONE', *, *, #46, .T. ) ;
#276 = ORIENTED_EDGE ( 'NONE', *, *, #246, .F. ) ;
#277 = VECTOR ( 'NONE', #184, 1000.000000000000100 ) ;
#278 = ORIENTED_EDGE ( 'NONE', *, *, #182, .F. ) ;
#279 = CARTESIAN_POINT ( 'NONE',  ( 9.999999999999980500, 0.0000000000000000000, 38.99999999994840000 ) ) ;
#280 = ORIENTED_EDGE ( 'NONE', *, *, #46, .F. ) ;
#281 = FILL_AREA_STYLE_COLOUR ( '', #49 ) ;
#282 = FILL_AREA_STYLE ('',( #89 ) ) ;
#283 =( GEOMETRIC_REPRESENTATION_CONTEXT ( 3 ) GLOBAL_UNCERTAINTY_ASSIGNED_CONTEXT ( ( #299 ) ) GLOBAL_UNIT_ASSIGNED_CONTEXT ( ( #26, #345, #210 ) ) REPRESENTATION_CONTEXT ( 'NONE', 'WORKASPACE' ) );
#284 = DIRECTION ( 'NONE',  ( -0.0000000000000000000, 0.0000000000000000000, 1.000000000000000000 ) ) ;
#285 = PRODUCT_DEFINITION_CONTEXT ( 'detailed design', #243, 'design' ) ;
#286 = VERTEX_POINT ( 'NONE', #91 ) ;
#287 = FACE_OUTER_BOUND ( 'NONE', #341, .T. ) ;
#288 = CARTESIAN_POINT ( 'NONE',  ( 0.0000000000000000000, 0.0000000000000000000, 18.99999999994840000 ) ) ;
#289 = EDGE_CURVE ( 'NONE', #266, #35, #309, .T. ) ;
#290 = STYLED_ITEM ( 'NONE', ( #197 ), #364 ) ;
#291 = CARTESIAN_POINT ( 'NONE',  ( 0.0000000000000000000, 0.0000000000000000000, 37.99999999994830100 ) ) ;
#292 = CIRCLE ( 'NONE', #126, 10.00000000000000000 ) ;
#293 = CARTESIAN_POINT ( 'NONE',  ( -2.899999999624859100, 3.551475717067909000E-016, 19.40999999994840400 ) ) ;
#294 = SURFACE_STYLE_USAGE ( .BOTH. , #329 ) ;
#295 =( NAMED_UNIT ( * ) PLANE_ANGLE_UNIT ( ) SI_UNIT ( $, .RADIAN. ) );
#296 = CARTESIAN_POINT ( 'NONE',  ( 2.054302088365888700, 1.172060916692767600, 60.31000996118140700 ) ) ;
#297 = AXIS2_PLACEMENT_3D ( 'NONE', #194, #258, #108 ) ;
#298 = PRODUCT_CONTEXT ( 'NONE', #6, 'mechanical' ) ;
#299 = UNCERTAINTY_MEASURE_WITH_UNIT (LENGTH_MEASURE( 1.000000000000000100E-005 ), #26, 'distance_accuracy_value', 'NONE');
#300 = CIRCLE ( 'NONE', #149, 2.490000000193504100 ) ;
#301 = EDGE_LOOP ( 'NONE', ( #4, #203 ) ) ;
#302 = AXIS2_PLACEMENT_3D ( 'NONE', #123, #128, #265 ) ;
#303 = SURFACE_STYLE_USAGE ( .BOTH. , #169 ) ;
#304 = CARTESIAN_POINT ( 'NONE',  ( 2.054302088365888700, -1.172060916692765800, 60.31000996118140000 ) ) ;
#305 = ADVANCED_FACE ( 'NONE', ( #88 ), #122, .T. ) ;
#306 = PRESENTATION_STYLE_ASSIGNMENT (( #294 ) ) ;
#307 = SURFACE_STYLE_FILL_AREA ( #357 ) ;
#308 = AXIS2_PLACEMENT_3D ( 'NONE', #288, #347, #320 ) ;
#309 = LINE ( 'NONE', #95, #249 ) ;
#310 = UNCERTAINTY_MEASURE_WITH_UNIT (LENGTH_MEASURE( 1.000000000000000100E-005 ), #30, 'distance_accuracy_value', 'NONE');
#311 = CARTESIAN_POINT ( 'NONE',  ( 0.9600527418674818000, -2.470041974402994900, 61.20704318809239200 ) ) ;
#312 = ADVANCED_FACE ( 'NONE', ( #17 ), #94, .T. ) ;
#313 = AXIS2_PLACEMENT_3D ( 'NONE', #253, #78, #368 ) ;
#314 = STYLED_ITEM ( 'NONE', ( #374 ), #147 ) ;
#315 = CARTESIAN_POINT ( 'NONE',  ( 2.899999999840474600, 0.0000000000000000000, 19.41000000016401800 ) ) ;
#316 = PRESENTATION_STYLE_ASSIGNMENT (( #303 ) ) ;
#317 = ORIENTED_EDGE ( 'NONE', *, *, #79, .T. ) ;
#318 = FILL_AREA_STYLE_COLOUR ( '', #325 ) ;
#319 = AXIS2_PLACEMENT_3D ( 'NONE', #41, #72, #103 ) ;
#320 = DIRECTION ( 'NONE',  ( -1.000000000000000000, 0.0000000000000000000, -0.0000000000000000000 ) ) ;
#321 = CARTESIAN_POINT ( 'NONE',  ( 0.0000000000000000000, 0.0000000000000000000, 37.99999999994830100 ) ) ;
#322 = CARTESIAN_POINT ( 'NONE',  ( -2.899999999840474600, 3.551475717331961900E-016, 19.41000000016401800 ) ) ;
#323 = ORIENTED_EDGE ( 'NONE', *, *, #205, .F. ) ;
#324 = EDGE_LOOP ( 'NONE', ( #378, #278 ) ) ;
#325 = COLOUR_RGB ( '',0.7529411764705882200, 0.7529411764705882200, 0.7529411764705882200 ) ;
#326 = CARTESIAN_POINT ( 'NONE',  ( 0.0000000000000000000, 0.0000000000000000000, 37.99999999994830100 ) ) ;
#327 = CARTESIAN_POINT ( 'NONE',  ( 2.490000000193504100, 0.0000000000000000000, 18.99999999972124000 ) ) ;
#328 = ORIENTED_EDGE ( 'NONE', *, *, #216, .T. ) ;
#329 = SURFACE_SIDE_STYLE ('',( #307 ) ) ;
#330 = SURFACE_SIDE_STYLE ('',( #99 ) ) ;
#331 = CIRCLE ( 'NONE', #176, 9.999999999999984000 ) ;
#332 = STYLED_ITEM ( 'NONE', ( #316 ), #48 ) ;
#333 = DIRECTION ( 'NONE',  ( 1.000000000000000000, 0.0000000000000000000, 0.0000000000000000000 ) ) ;
#334 = EDGE_LOOP ( 'NONE', ( #167, #233 ) ) ;
#335 = AXIS2_PLACEMENT_3D ( 'NONE', #62, #375, #86 ) ;
#336 = EDGE_LOOP ( 'NONE', ( #160, #209, #276, #153 ) ) ;
#337 = PRESENTATION_LAYER_ASSIGNMENT (  '', '', ( #332 ) ) ;
#338 = ADVANCED_FACE ( 'NONE', ( #32 ), #242, .T. ) ;
#339 = DIRECTION ( 'NONE',  ( -1.224646799147353200E-016, 1.000000000000000000, 0.0000000000000000000 ) ) ;
#340 = AXIS2_PLACEMENT_3D ( 'NONE', #321, #215, #157 ) ;
#341 = EDGE_LOOP ( 'NONE', ( #358, #54, #138, #116 ) ) ;
#342 = DIRECTION ( 'NONE',  ( 1.000000000000000000, 0.0000000000000000000, 0.0000000000000000000 ) ) ;
#343 = CARTESIAN_POINT ( 'NONE',  ( 2.899999999999999900, 0.0000000000000000000, 18.99999999994840000 ) ) ;
#344 = VERTEX_POINT ( 'NONE', #350 ) ;
#345 =( NAMED_UNIT ( * ) PLANE_ANGLE_UNIT ( ) SI_UNIT ( $, .RADIAN. ) );
#346 = LINE ( 'NONE', #315, #47 ) ;
#347 = DIRECTION ( 'NONE',  ( 0.0000000000000000000, 0.0000000000000000000, -1.000000000000000000 ) ) ;
#348 = VECTOR ( 'NONE', #175, 1000.000000000000000 ) ;
#349 = EDGE_LOOP ( 'NONE', ( #24, #92, #192, #323 ) ) ;
#350 = CARTESIAN_POINT ( 'NONE',  ( -2.037875155335364200, 0.0000000000000000000, 60.94812459792556300 ) ) ;
#351 = EDGE_CURVE ( 'NONE', #35, #196, #355, .T. ) ;
#352 = AXIS2_PLACEMENT_3D ( 'NONE', #143, #362, #172 ) ;
#353 = CIRCLE ( 'NONE', #313, 2.899999999999999900 ) ;
#354 = EDGE_LOOP ( 'NONE', ( #280, #40, #269, #18 ) ) ;
#355 = CIRCLE ( 'NONE', #340, 2.899999999999999900 ) ;
#356 = CARTESIAN_POINT ( 'NONE',  ( 0.0000000000000000000, 0.0000000000000000000, 18.99999999972124000 ) ) ;
#357 = FILL_AREA_STYLE ('',( #185 ) ) ;
#358 = ORIENTED_EDGE ( 'NONE', *, *, #79, .F. ) ;
#359 = ORIENTED_EDGE ( 'NONE', *, *, #216, .F. ) ;
#360 = DIRECTION ( 'NONE',  ( 0.0000000000000000000, 0.0000000000000000000, 1.000000000000000000 ) ) ;
#361 = EDGE_CURVE ( 'NONE', #44, #121, #133, .T. ) ;
#362 = DIRECTION ( 'NONE',  ( -0.0000000000000000000, 0.0000000000000000000, 1.000000000000000000 ) ) ;
#363 = DIRECTION ( 'NONE',  ( -1.000000000000000000, -1.224646799147353000E-016, 0.0000000000000000000 ) ) ;
#364 = ADVANCED_BREP_SHAPE_REPRESENTATION ( '6340060_CNAJF00', ( #168, #36 ), #135 ) ;
#365 =( GEOMETRIC_REPRESENTATION_CONTEXT ( 3 ) GLOBAL_UNCERTAINTY_ASSIGNED_CONTEXT ( ( #310 ) ) GLOBAL_UNIT_ASSIGNED_CONTEXT ( ( #30, #120, #151 ) ) REPRESENTATION_CONTEXT ( 'NONE', 'WORKASPACE' ) );
#366 = COLOUR_RGB ( '',0.0000000000000000000, 0.0000000000000000000, 0.0000000000000000000 ) ;
#367 = VERTEX_POINT ( 'NONE', #214 ) ;
#368 = DIRECTION ( 'NONE',  ( 1.000000000000000000, 0.0000000000000000000, 0.0000000000000000000 ) ) ;
#369 = PLANE ( 'NONE',  #15 ) ;
#370 = DIRECTION ( 'NONE',  ( 1.000000000000000000, 0.0000000000000000000, 0.0000000000000000000 ) ) ;
#371 = DIRECTION ( 'NONE',  ( 0.0000000000000000000, 0.0000000000000000000, -1.000000000000000000 ) ) ;
#372 =( GEOMETRIC_REPRESENTATION_CONTEXT ( 3 ) GLOBAL_UNCERTAINTY_ASSIGNED_CONTEXT ( ( #234 ) ) GLOBAL_UNIT_ASSIGNED_CONTEXT ( ( #106, #220, #218 ) ) REPRESENTATION_CONTEXT ( 'NONE', 'WORKASPACE' ) );
#373 = EDGE_CURVE ( 'NONE', #59, #266, #115, .T. ) ;
#374 = PRESENTATION_STYLE_ASSIGNMENT (( #56 ) ) ;
#375 = DIRECTION ( 'NONE',  ( 0.0000000000000000000, 0.0000000000000000000, 1.000000000000000000 ) ) ;
#376 = UNCERTAINTY_MEASURE_WITH_UNIT (LENGTH_MEASURE( 1.000000000000000100E-005 ), #186, 'distance_accuracy_value', 'NONE');
#377 = TOROIDAL_SURFACE ( 'NONE', #5, -32.14341672259205800, 42.24103520234311300 ) ;
#378 = ORIENTED_EDGE ( 'NONE', *, *, #37, .F. ) ;
#379 = STYLED_ITEM ( 'NONE', ( #306 ), #10 ) ;
ENDSEC;
END-ISO-10303-21;
