ISO-10303-21;
HEADER;
FILE_DESCRIPTION (( 'STEP AP214' ),
    '1' );
FILE_NAME ('7720010',
    '2019-02-04T09:52:14',
    ( '' ),
    ('JUGARD+KÜNSTNER GmbH'),
    'SwSTEP 2.0',
    'SolidWorks 2017',
    '' );
FILE_SCHEMA (( 'AUTOMOTIVE_DESIGN' ));
ENDSEC;

DATA;
#1 = AXIS2_PLACEMENT_3D ( 'NONE', #125, #14, #5 ) ;
#2 =( NAMED_UNIT ( * ) PLANE_ANGLE_UNIT ( ) SI_UNIT ( $, .RADIAN. ) );
#3 = CARTESIAN_POINT ( 'NONE',  ( -7.000000050161951000, 0.0000000000000000000, 0.0000000000000000000 ) ) ;
#4 = LINE ( 'NONE', #109, #34 ) ;
#5 = DIRECTION ( 'NONE',  ( -1.000000000000000000, 0.0000000000000000000, 0.0000000000000000000 ) ) ;
#6 = DIRECTION ( 'NONE',  ( 0.0000000000000000000, 0.0000000000000000000, -1.000000000000000000 ) ) ;
#7 = FILL_AREA_STYLE_COLOUR ( '', #105 ) ;
#8 = FACE_OUTER_BOUND ( 'NONE', #92, .T. ) ;
#9 = AXIS2_PLACEMENT_3D ( 'NONE', #46, #47, #81 ) ;
#10 = EDGE_CURVE ( 'NONE', #11, #51, #48, .T. ) ;
#11 = VERTEX_POINT ( 'NONE', #3 ) ;
#12 = PRODUCT ( '7720010_CNAJF00', '7720010_CNAJF00', '', ( #123 ) ) ;
#13 = EDGE_CURVE ( 'NONE', #30, #133, #39, .T. ) ;
#14 = DIRECTION ( 'NONE',  ( -0.0000000000000000000, -0.0000000000000000000, 1.000000000000000000 ) ) ;
#15 = PLANE ( 'NONE',  #124 ) ;
#16 = VECTOR ( 'NONE', #52, 1000.000000000000000 ) ;
#17 = AXIS2_PLACEMENT_3D ( 'NONE', #65, #54, #111 ) ;
#18 =( LENGTH_UNIT ( ) NAMED_UNIT ( * ) SI_UNIT ( .MILLI., .METRE. ) );
#19 = EDGE_LOOP ( 'NONE', ( #80, #114, #26, #59 ) ) ;
#20 = UNCERTAINTY_MEASURE_WITH_UNIT (LENGTH_MEASURE( 1.000000000000000100E-005 ), #18, 'distance_accuracy_value', 'NONE');
#21 = EDGE_CURVE ( 'NONE', #51, #11, #100, .T. ) ;
#22 =( GEOMETRIC_REPRESENTATION_CONTEXT ( 3 ) GLOBAL_UNCERTAINTY_ASSIGNED_CONTEXT ( ( #20 ) ) GLOBAL_UNIT_ASSIGNED_CONTEXT ( ( #18, #41, #99 ) ) REPRESENTATION_CONTEXT ( 'NONE', 'WORKASPACE' ) );
#23 = PRESENTATION_LAYER_ASSIGNMENT (  '', '', ( #91 ) ) ;
#24 = PRESENTATION_LAYER_ASSIGNMENT (  '', '', ( #56 ) ) ;
#25 = PRESENTATION_STYLE_ASSIGNMENT (( #53 ) ) ;
#26 = ORIENTED_EDGE ( 'NONE', *, *, #21, .T. ) ;
#27 = CARTESIAN_POINT ( 'NONE',  ( -6.792855080511860200E-008, 0.0000000000000000000, 500.0000000000000000 ) ) ;
#28 = FILL_AREA_STYLE ('',( #7 ) ) ;
#29 = PLANE ( 'NONE',  #17 ) ;
#30 = VERTEX_POINT ( 'NONE', #73 ) ;
#31 = AXIS2_PLACEMENT_3D ( 'NONE', #139, #85, #87 ) ;
#32 = CYLINDRICAL_SURFACE ( 'NONE', #31, 6.999999982233400300 ) ;
#33 = CYLINDRICAL_SURFACE ( 'NONE', #86, 6.999999982233400300 ) ;
#34 = VECTOR ( 'NONE', #6, 1000.000000000000000 ) ;
#35 = DIRECTION ( 'NONE',  ( 1.000000000000000000, 0.0000000000000000000, 0.0000000000000000000 ) ) ;
#36 =( LENGTH_UNIT ( ) NAMED_UNIT ( * ) SI_UNIT ( .MILLI., .METRE. ) );
#37 =( GEOMETRIC_REPRESENTATION_CONTEXT ( 3 ) GLOBAL_UNCERTAINTY_ASSIGNED_CONTEXT ( ( #75 ) ) GLOBAL_UNIT_ASSIGNED_CONTEXT ( ( #36, #2, #57 ) ) REPRESENTATION_CONTEXT ( 'NONE', 'WORKASPACE' ) );
#38 = DIRECTION ( 'NONE',  ( 0.0000000000000000000, 0.0000000000000000000, -1.000000000000000000 ) ) ;
#39 = CIRCLE ( 'NONE', #84, 6.999999982233400300 ) ;
#40 =( GEOMETRIC_REPRESENTATION_CONTEXT ( 3 ) GLOBAL_UNCERTAINTY_ASSIGNED_CONTEXT ( ( #79 ) ) GLOBAL_UNIT_ASSIGNED_CONTEXT ( ( #119, #50, #128 ) ) REPRESENTATION_CONTEXT ( 'NONE', 'WORKASPACE' ) );
#41 =( NAMED_UNIT ( * ) PLANE_ANGLE_UNIT ( ) SI_UNIT ( $, .RADIAN. ) );
#42 = LINE ( 'NONE', #130, #16 ) ;
#43 = SURFACE_STYLE_USAGE ( .BOTH. , #110 ) ;
#44 = APPLICATION_PROTOCOL_DEFINITION ( 'draft international standard', 'automotive_design', 1998, #112 ) ;
#45 = PRODUCT_DEFINITION_CONTEXT ( 'detailed design', #112, 'design' ) ;
#46 = CARTESIAN_POINT ( 'NONE',  ( -6.792855080511860200E-008, 0.0000000000000000000, 0.0000000000000000000 ) ) ;
#47 = DIRECTION ( 'NONE',  ( -0.0000000000000000000, -0.0000000000000000000, 1.000000000000000000 ) ) ;
#48 = CIRCLE ( 'NONE', #1, 6.999999982233400300 ) ;
#49 = AXIS2_PLACEMENT_3D ( 'NONE', #103, #122, #35 ) ;
#50 =( NAMED_UNIT ( * ) PLANE_ANGLE_UNIT ( ) SI_UNIT ( $, .RADIAN. ) );
#51 = VERTEX_POINT ( 'NONE', #115 ) ;
#52 = DIRECTION ( 'NONE',  ( 0.0000000000000000000, 0.0000000000000000000, -1.000000000000000000 ) ) ;
#53 = SURFACE_STYLE_USAGE ( .BOTH. , #101 ) ;
#54 = DIRECTION ( 'NONE',  ( 0.0000000000000000000, 0.0000000000000000000, 1.000000000000000000 ) ) ;
#55 = FACE_OUTER_BOUND ( 'NONE', #83, .T. ) ;
#56 = STYLED_ITEM ( 'NONE', ( #89 ), #98 ) ;
#57 =( NAMED_UNIT ( * ) SI_UNIT ( $, .STERADIAN. ) SOLID_ANGLE_UNIT ( ) );
#58 = AXIS2_PLACEMENT_3D ( 'NONE', #27, #78, #77 ) ;
#59 = ORIENTED_EDGE ( 'NONE', *, *, #137, .F. ) ;
#60 = CARTESIAN_POINT ( 'NONE',  ( -6.792855080511860200E-008, 0.0000000000000000000, 0.0000000000000000000 ) ) ;
#61 = ADVANCED_FACE ( 'NONE', ( #8 ), #15, .F. ) ;
#62 = MECHANICAL_DESIGN_GEOMETRIC_PRESENTATION_REPRESENTATION (  '', ( #56 ), #37 ) ;
#63 = CIRCLE ( 'NONE', #58, 6.999999982233400300 ) ;
#64 = APPLICATION_CONTEXT ( 'automotive_design' ) ;
#65 = CARTESIAN_POINT ( 'NONE',  ( -6.792855080511860200E-008, 0.0000000000000000000, 500.0000000000000000 ) ) ;
#66 = EDGE_LOOP ( 'NONE', ( #129, #95 ) ) ;
#67 = SHAPE_DEFINITION_REPRESENTATION ( #71, #98 ) ;
#68 = PRODUCT_DEFINITION ( 'UNKNOWN', '', #94, #45 ) ;
#69 = ORIENTED_EDGE ( 'NONE', *, *, #137, .T. ) ;
#70 = ADVANCED_FACE ( 'NONE', ( #55 ), #33, .T. ) ;
#71 = PRODUCT_DEFINITION_SHAPE ( 'NONE', 'NONE',  #68 ) ;
#72 = DIRECTION ( 'NONE',  ( 0.0000000000000000000, 0.0000000000000000000, -1.000000000000000000 ) ) ;
#73 = CARTESIAN_POINT ( 'NONE',  ( -7.000000050161951000, 0.0000000000000000000, 500.0000000000000000 ) ) ;
#74 = ORIENTED_EDGE ( 'NONE', *, *, #21, .F. ) ;
#75 = UNCERTAINTY_MEASURE_WITH_UNIT (LENGTH_MEASURE( 1.000000000000000100E-005 ), #36, 'distance_accuracy_value', 'NONE');
#76 = APPLICATION_PROTOCOL_DEFINITION ( 'draft international standard', 'automotive_design', 1998, #64 ) ;
#77 = DIRECTION ( 'NONE',  ( -1.000000000000000000, 0.0000000000000000000, 0.0000000000000000000 ) ) ;
#78 = DIRECTION ( 'NONE',  ( 0.0000000000000000000, 0.0000000000000000000, -1.000000000000000000 ) ) ;
#79 = UNCERTAINTY_MEASURE_WITH_UNIT (LENGTH_MEASURE( 1.000000000000000100E-005 ), #119, 'distance_accuracy_value', 'NONE');
#80 = ORIENTED_EDGE ( 'NONE', *, *, #13, .T. ) ;
#81 = DIRECTION ( 'NONE',  ( -1.000000000000000000, 0.0000000000000000000, 0.0000000000000000000 ) ) ;
#82 = CARTESIAN_POINT ( 'NONE',  ( -6.792855080511860200E-008, 0.0000000000000000000, 500.0000000000000000 ) ) ;
#83 = EDGE_LOOP ( 'NONE', ( #116, #127, #69, #90 ) ) ;
#84 = AXIS2_PLACEMENT_3D ( 'NONE', #136, #72, #104 ) ;
#85 = DIRECTION ( 'NONE',  ( 0.0000000000000000000, 0.0000000000000000000, -1.000000000000000000 ) ) ;
#86 = AXIS2_PLACEMENT_3D ( 'NONE', #82, #38, #126 ) ;
#87 = DIRECTION ( 'NONE',  ( -1.000000000000000000, 0.0000000000000000000, 0.0000000000000000000 ) ) ;
#88 = FILL_AREA_STYLE ('',( #97 ) ) ;
#89 = PRESENTATION_STYLE_ASSIGNMENT (( #43 ) ) ;
#90 = ORIENTED_EDGE ( 'NONE', *, *, #10, .T. ) ;
#91 = STYLED_ITEM ( 'NONE', ( #25 ), #140 ) ;
#92 = EDGE_LOOP ( 'NONE', ( #118, #74 ) ) ;
#93 = DIRECTION ( 'NONE',  ( 0.0000000000000000000, 0.0000000000000000000, 1.000000000000000000 ) ) ;
#94 = PRODUCT_DEFINITION_FORMATION_WITH_SPECIFIED_SOURCE ( 'ANY', '', #12, .NOT_KNOWN. ) ;
#95 = ORIENTED_EDGE ( 'NONE', *, *, #108, .F. ) ;
#96 = ADVANCED_FACE ( 'NONE', ( #134 ), #29, .T. ) ;
#97 = FILL_AREA_STYLE_COLOUR ( '', #121 ) ;
#98 = ADVANCED_BREP_SHAPE_REPRESENTATION ( '7720010_CNAJF00', ( #140, #49 ), #40 ) ;
#99 =( NAMED_UNIT ( * ) SI_UNIT ( $, .STERADIAN. ) SOLID_ANGLE_UNIT ( ) );
#100 = CIRCLE ( 'NONE', #9, 6.999999982233400300 ) ;
#101 = SURFACE_SIDE_STYLE ('',( #132 ) ) ;
#102 = PRODUCT_RELATED_PRODUCT_CATEGORY ( 'part', '', ( #12 ) ) ;
#103 = CARTESIAN_POINT ( 'NONE',  ( 0.0000000000000000000, 0.0000000000000000000, 0.0000000000000000000 ) ) ;
#104 = DIRECTION ( 'NONE',  ( -1.000000000000000000, 0.0000000000000000000, 0.0000000000000000000 ) ) ;
#105 = COLOUR_RGB ( '',0.7529411764705882200, 0.7529411764705882200, 0.7529411764705882200 ) ;
#106 = DIRECTION ( 'NONE',  ( 1.000000000000000000, 0.0000000000000000000, -0.0000000000000000000 ) ) ;
#107 = FACE_OUTER_BOUND ( 'NONE', #19, .T. ) ;
#108 = EDGE_CURVE ( 'NONE', #133, #30, #63, .T. ) ;
#109 = CARTESIAN_POINT ( 'NONE',  ( 6.999999914304849500, 8.572527572273662900E-016, 500.0000000000000000 ) ) ;
#110 = SURFACE_SIDE_STYLE ('',( #113 ) ) ;
#111 = DIRECTION ( 'NONE',  ( 1.000000000000000000, 0.0000000000000000000, -0.0000000000000000000 ) ) ;
#112 = APPLICATION_CONTEXT ( 'automotive_design' ) ;
#113 = SURFACE_STYLE_FILL_AREA ( #28 ) ;
#114 = ORIENTED_EDGE ( 'NONE', *, *, #131, .T. ) ;
#115 = CARTESIAN_POINT ( 'NONE',  ( 6.999999914304849500, 8.572527572273662900E-016, 0.0000000000000000000 ) ) ;
#116 = ORIENTED_EDGE ( 'NONE', *, *, #131, .F. ) ;
#117 = CARTESIAN_POINT ( 'NONE',  ( 6.999999914304849500, 8.572527572273662900E-016, 500.0000000000000000 ) ) ;
#118 = ORIENTED_EDGE ( 'NONE', *, *, #10, .F. ) ;
#119 =( LENGTH_UNIT ( ) NAMED_UNIT ( * ) SI_UNIT ( .MILLI., .METRE. ) );
#120 = MECHANICAL_DESIGN_GEOMETRIC_PRESENTATION_REPRESENTATION (  '', ( #91 ), #22 ) ;
#121 = COLOUR_RGB ( '',0.8745098039215686300, 0.9137254901960784000, 1.000000000000000000 ) ;
#122 = DIRECTION ( 'NONE',  ( 0.0000000000000000000, 0.0000000000000000000, 1.000000000000000000 ) ) ;
#123 = PRODUCT_CONTEXT ( 'NONE', #64, 'mechanical' ) ;
#124 = AXIS2_PLACEMENT_3D ( 'NONE', #60, #93, #106 ) ;
#125 = CARTESIAN_POINT ( 'NONE',  ( -6.792855080511860200E-008, 0.0000000000000000000, 0.0000000000000000000 ) ) ;
#126 = DIRECTION ( 'NONE',  ( -1.000000000000000000, 0.0000000000000000000, 0.0000000000000000000 ) ) ;
#127 = ORIENTED_EDGE ( 'NONE', *, *, #108, .T. ) ;
#128 =( NAMED_UNIT ( * ) SI_UNIT ( $, .STERADIAN. ) SOLID_ANGLE_UNIT ( ) );
#129 = ORIENTED_EDGE ( 'NONE', *, *, #13, .F. ) ;
#130 = CARTESIAN_POINT ( 'NONE',  ( -7.000000050161951000, 0.0000000000000000000, 500.0000000000000000 ) ) ;
#131 = EDGE_CURVE ( 'NONE', #133, #51, #4, .T. ) ;
#132 = SURFACE_STYLE_FILL_AREA ( #88 ) ;
#133 = VERTEX_POINT ( 'NONE', #117 ) ;
#134 = FACE_OUTER_BOUND ( 'NONE', #66, .T. ) ;
#135 = ADVANCED_FACE ( 'NONE', ( #107 ), #32, .T. ) ;
#136 = CARTESIAN_POINT ( 'NONE',  ( -6.792855080511860200E-008, 0.0000000000000000000, 500.0000000000000000 ) ) ;
#137 = EDGE_CURVE ( 'NONE', #30, #11, #42, .T. ) ;
#138 = CLOSED_SHELL ( 'NONE', ( #135, #70, #61, #96 ) ) ;
#139 = CARTESIAN_POINT ( 'NONE',  ( -6.792855080511860200E-008, 0.0000000000000000000, 500.0000000000000000 ) ) ;
#140 = MANIFOLD_SOLID_BREP ( 'Importiert1', #138 ) ;
ENDSEC;
END-ISO-10303-21;
