ISO-10303-21;
HEADER;
FILE_DESCRIPTION (( 'STEP AP214' ),
    '1' );
FILE_NAME ('7310041',
    '2019-02-01T13:25:52',
    ( '' ),
    ('JUGARD+KÜNSTNER GmbH'),
    'SwSTEP 2.0',
    'SolidWorks 2017',
    '' );
FILE_SCHEMA (( 'AUTOMOTIVE_DESIGN' ));
ENDSEC;

DATA;
#1 = AXIS2_PLACEMENT_3D ( 'NONE', #71, #107, #169 ) ;
#2 = ORIENTED_EDGE ( 'NONE', *, *, #15, .T. ) ;
#3 = ADVANCED_FACE ( 'NONE', ( #75, #147 ), #96, .F. ) ;
#4 = VECTOR ( 'NONE', #142, 1000.000000000000000 ) ;
#5 = DIRECTION ( 'NONE',  ( 0.0000000000000000000, 0.0000000000000000000, 1.000000000000000000 ) ) ;
#6 = SURFACE_SIDE_STYLE ('',( #166 ) ) ;
#7 = CARTESIAN_POINT ( 'NONE',  ( 1.279220779220779900, -2.220446049250320200E-015, 1.380506584136770100E-026 ) ) ;
#8 = PLANE ( 'NONE',  #1 ) ;
#9 = EDGE_CURVE ( 'NONE', #93, #66, #102, .T. ) ;
#10 = ORIENTED_EDGE ( 'NONE', *, *, #46, .F. ) ;
#11 = DIRECTION ( 'NONE',  ( 0.0000000000000000000, 0.0000000000000000000, 1.000000000000000000 ) ) ;
#12 = CARTESIAN_POINT ( 'NONE',  ( 0.0000000000000000000, 0.0000000000000000000, 2000.000000000000000 ) ) ;
#13 = APPLICATION_PROTOCOL_DEFINITION ( 'draft international standard', 'automotive_design', 1998, #115 ) ;
#14 = LINE ( 'NONE', #175, #202 ) ;
#15 = EDGE_CURVE ( 'NONE', #48, #93, #199, .T. ) ;
#16 = PRESENTATION_LAYER_ASSIGNMENT (  '', '', ( #201 ) ) ;
#17 = FACE_OUTER_BOUND ( 'NONE', #163, .T. ) ;
#18 = CIRCLE ( 'NONE', #61, 13.00000000000000200 ) ;
#19 = UNCERTAINTY_MEASURE_WITH_UNIT (LENGTH_MEASURE( 1.000000000000000100E-005 ), #26, 'distance_accuracy_value', 'NONE');
#20 = DIRECTION ( 'NONE',  ( -0.0000000000000000000, -0.0000000000000000000, -1.000000000000000000 ) ) ;
#21 =( NAMED_UNIT ( * ) SI_UNIT ( $, .STERADIAN. ) SOLID_ANGLE_UNIT ( ) );
#22 = CYLINDRICAL_SURFACE ( 'NONE', #89, 13.00000000000000200 ) ;
#23 = EDGE_LOOP ( 'NONE', ( #108, #2, #179, #162 ) ) ;
#24 = CARTESIAN_POINT ( 'NONE',  ( 13.00000000000000200, 0.0000000000000000000, 1.380506584136770100E-026 ) ) ;
#25 = DIRECTION ( 'NONE',  ( 0.0000000000000000000, 0.0000000000000000000, 1.000000000000000000 ) ) ;
#26 =( LENGTH_UNIT ( ) NAMED_UNIT ( * ) SI_UNIT ( .MILLI., .METRE. ) );
#27 = ORIENTED_EDGE ( 'NONE', *, *, #177, .F. ) ;
#28 = ORIENTED_EDGE ( 'NONE', *, *, #15, .F. ) ;
#29 = CARTESIAN_POINT ( 'NONE',  ( 0.0000000000000000000, 0.0000000000000000000, 2000.000000000000000 ) ) ;
#30 = MECHANICAL_DESIGN_GEOMETRIC_PRESENTATION_REPRESENTATION (  '', ( #201 ), #130 ) ;
#31 = LINE ( 'NONE', #127, #118 ) ;
#32 = EDGE_CURVE ( 'NONE', #194, #47, #50, .T. ) ;
#33 = CYLINDRICAL_SURFACE ( 'NONE', #165, 15.00000000000000000 ) ;
#34 = PRODUCT_RELATED_PRODUCT_CATEGORY ( 'part', '', ( #54 ) ) ;
#35 = ORIENTED_EDGE ( 'NONE', *, *, #80, .T. ) ;
#36 = DIRECTION ( 'NONE',  ( 1.000000000000000000, 0.0000000000000000000, -0.0000000000000000000 ) ) ;
#37 = ORIENTED_EDGE ( 'NONE', *, *, #198, .F. ) ;
#38 =( NAMED_UNIT ( * ) PLANE_ANGLE_UNIT ( ) SI_UNIT ( $, .RADIAN. ) );
#39 = EDGE_CURVE ( 'NONE', #93, #48, #161, .T. ) ;
#40 = CARTESIAN_POINT ( 'NONE',  ( -13.00000000000000200, 1.592040838891559300E-015, 1.380506584136770100E-026 ) ) ;
#41 = CARTESIAN_POINT ( 'NONE',  ( 0.0000000000000000000, 0.0000000000000000000, 1.380506584136770100E-026 ) ) ;
#42 = AXIS2_PLACEMENT_3D ( 'NONE', #79, #195, #144 ) ;
#43 = DIRECTION ( 'NONE',  ( -0.0000000000000000000, -0.0000000000000000000, -1.000000000000000000 ) ) ;
#44 = AXIS2_PLACEMENT_3D ( 'NONE', #76, #97, #207 ) ;
#45 =( LENGTH_UNIT ( ) NAMED_UNIT ( * ) SI_UNIT ( .MILLI., .METRE. ) );
#46 = EDGE_CURVE ( 'NONE', #197, #103, #153, .T. ) ;
#47 = VERTEX_POINT ( 'NONE', #205 ) ;
#48 = VERTEX_POINT ( 'NONE', #40 ) ;
#49 = AXIS2_PLACEMENT_3D ( 'NONE', #94, #60, #124 ) ;
#50 = CIRCLE ( 'NONE', #121, 15.00000000000000000 ) ;
#51 = PRODUCT_DEFINITION_CONTEXT ( 'detailed design', #145, 'design' ) ;
#52 = CIRCLE ( 'NONE', #78, 15.00000000000000000 ) ;
#53 = PRESENTATION_LAYER_ASSIGNMENT (  '', '', ( #184 ) ) ;
#54 = PRODUCT ( '7310041_CNAJF00', '7310041_CNAJF00', '', ( #208 ) ) ;
#55 = PRESENTATION_STYLE_ASSIGNMENT (( #125 ) ) ;
#56 = ORIENTED_EDGE ( 'NONE', *, *, #9, .F. ) ;
#57 = AXIS2_PLACEMENT_3D ( 'NONE', #7, #5, #36 ) ;
#58 = DIRECTION ( 'NONE',  ( 1.000000000000000000, 0.0000000000000000000, 0.0000000000000000000 ) ) ;
#59 = CIRCLE ( 'NONE', #86, 13.00000000000000200 ) ;
#60 = DIRECTION ( 'NONE',  ( -0.0000000000000000000, -0.0000000000000000000, -1.000000000000000000 ) ) ;
#61 = AXIS2_PLACEMENT_3D ( 'NONE', #191, #74, #189 ) ;
#62 = EDGE_LOOP ( 'NONE', ( #150, #35 ) ) ;
#63 = DIRECTION ( 'NONE',  ( -0.0000000000000000000, -0.0000000000000000000, -1.000000000000000000 ) ) ;
#64 = CARTESIAN_POINT ( 'NONE',  ( -13.00000000000000200, 1.592040838891559300E-015, 1.380506584136770100E-026 ) ) ;
#65 = DIRECTION ( 'NONE',  ( 0.0000000000000000000, 0.0000000000000000000, 1.000000000000000000 ) ) ;
#66 = VERTEX_POINT ( 'NONE', #186 ) ;
#67 = EDGE_LOOP ( 'NONE', ( #132, #69, #27, #56 ) ) ;
#68 = AXIS2_PLACEMENT_3D ( 'NONE', #73, #20, #172 ) ;
#69 = ORIENTED_EDGE ( 'NONE', *, *, #164, .T. ) ;
#70 =( GEOMETRIC_REPRESENTATION_CONTEXT ( 3 ) GLOBAL_UNCERTAINTY_ASSIGNED_CONTEXT ( ( #128 ) ) GLOBAL_UNIT_ASSIGNED_CONTEXT ( ( #45, #101, #81 ) ) REPRESENTATION_CONTEXT ( 'NONE', 'WORKASPACE' ) );
#71 = CARTESIAN_POINT ( 'NONE',  ( 1.279220779220779900, -2.220446049250320200E-015, 2000.000000000000000 ) ) ;
#72 = ORIENTED_EDGE ( 'NONE', *, *, #46, .T. ) ;
#73 = CARTESIAN_POINT ( 'NONE',  ( 0.0000000000000000000, 0.0000000000000000000, 1.380506584136770100E-026 ) ) ;
#74 = DIRECTION ( 'NONE',  ( -0.0000000000000000000, -0.0000000000000000000, -1.000000000000000000 ) ) ;
#75 = FACE_BOUND ( 'NONE', #88, .T. ) ;
#76 = CARTESIAN_POINT ( 'NONE',  ( 0.0000000000000000000, 0.0000000000000000000, 0.0000000000000000000 ) ) ;
#77 = MANIFOLD_SOLID_BREP ( 'Importiert1', #120 ) ;
#78 = AXIS2_PLACEMENT_3D ( 'NONE', #160, #98, #213 ) ;
#79 = CARTESIAN_POINT ( 'NONE',  ( 0.0000000000000000000, 0.0000000000000000000, 1.380506584136770100E-026 ) ) ;
#80 = EDGE_CURVE ( 'NONE', #211, #66, #18, .T. ) ;
#81 =( NAMED_UNIT ( * ) SI_UNIT ( $, .STERADIAN. ) SOLID_ANGLE_UNIT ( ) );
#82 = DIRECTION ( 'NONE',  ( 0.0000000000000000000, 0.0000000000000000000, 1.000000000000000000 ) ) ;
#83 = ORIENTED_EDGE ( 'NONE', *, *, #196, .F. ) ;
#84 = ORIENTED_EDGE ( 'NONE', *, *, #32, .T. ) ;
#85 = ADVANCED_FACE ( 'NONE', ( #17 ), #87, .T. ) ;
#86 = AXIS2_PLACEMENT_3D ( 'NONE', #12, #113, #192 ) ;
#87 = CYLINDRICAL_SURFACE ( 'NONE', #104, 15.00000000000000000 ) ;
#88 = EDGE_LOOP ( 'NONE', ( #203, #28 ) ) ;
#89 = AXIS2_PLACEMENT_3D ( 'NONE', #206, #123, #91 ) ;
#90 = ADVANCED_FACE ( 'NONE', ( #187 ), #22, .F. ) ;
#91 = DIRECTION ( 'NONE',  ( 1.000000000000000000, 0.0000000000000000000, 0.0000000000000000000 ) ) ;
#92 = CARTESIAN_POINT ( 'NONE',  ( 13.00000000000000200, 0.0000000000000000000, 1.380506584136770100E-026 ) ) ;
#93 = VERTEX_POINT ( 'NONE', #24 ) ;
#94 = CARTESIAN_POINT ( 'NONE',  ( 0.0000000000000000000, 0.0000000000000000000, 2000.000000000000000 ) ) ;
#95 = AXIS2_PLACEMENT_3D ( 'NONE', #29, #63, #143 ) ;
#96 = PLANE ( 'NONE',  #57 ) ;
#97 = DIRECTION ( 'NONE',  ( 0.0000000000000000000, 0.0000000000000000000, 1.000000000000000000 ) ) ;
#98 = DIRECTION ( 'NONE',  ( 0.0000000000000000000, 0.0000000000000000000, 1.000000000000000000 ) ) ;
#99 = ORIENTED_EDGE ( 'NONE', *, *, #146, .T. ) ;
#100 = PRODUCT_DEFINITION_FORMATION_WITH_SPECIFIED_SOURCE ( 'ANY', '', #54, .NOT_KNOWN. ) ;
#101 =( NAMED_UNIT ( * ) PLANE_ANGLE_UNIT ( ) SI_UNIT ( $, .RADIAN. ) );
#102 = LINE ( 'NONE', #92, #4 ) ;
#103 = VERTEX_POINT ( 'NONE', #109 ) ;
#104 = AXIS2_PLACEMENT_3D ( 'NONE', #141, #190, #58 ) ;
#105 = COLOUR_RGB ( '',0.7529411764705882200, 0.7529411764705882200, 0.7529411764705882200 ) ;
#106 = VECTOR ( 'NONE', #11, 1000.000000000000000 ) ;
#107 = DIRECTION ( 'NONE',  ( 0.0000000000000000000, 0.0000000000000000000, 1.000000000000000000 ) ) ;
#108 = ORIENTED_EDGE ( 'NONE', *, *, #164, .F. ) ;
#109 = CARTESIAN_POINT ( 'NONE',  ( -15.00000000000000000, 1.836970198721029600E-015, 2000.000000000000000 ) ) ;
#110 = DIRECTION ( 'NONE',  ( 1.000000000000000000, 0.0000000000000000000, 0.0000000000000000000 ) ) ;
#111 = FACE_OUTER_BOUND ( 'NONE', #67, .T. ) ;
#112 =( NAMED_UNIT ( * ) PLANE_ANGLE_UNIT ( ) SI_UNIT ( $, .RADIAN. ) );
#113 = DIRECTION ( 'NONE',  ( -0.0000000000000000000, -0.0000000000000000000, -1.000000000000000000 ) ) ;
#114 = DIRECTION ( 'NONE',  ( 1.000000000000000000, 0.0000000000000000000, 0.0000000000000000000 ) ) ;
#115 = APPLICATION_CONTEXT ( 'automotive_design' ) ;
#116 = FACE_BOUND ( 'NONE', #62, .T. ) ;
#117 = CARTESIAN_POINT ( 'NONE',  ( 15.00000000000000000, 0.0000000000000000000, 2000.000000000000000 ) ) ;
#118 = VECTOR ( 'NONE', #65, 1000.000000000000000 ) ;
#119 = SHAPE_DEFINITION_REPRESENTATION ( #151, #136 ) ;
#120 = CLOSED_SHELL ( 'NONE', ( #168, #170, #85, #3, #135, #90 ) ) ;
#121 = AXIS2_PLACEMENT_3D ( 'NONE', #185, #173, #155 ) ;
#122 = CYLINDRICAL_SURFACE ( 'NONE', #42, 13.00000000000000200 ) ;
#123 = DIRECTION ( 'NONE',  ( 0.0000000000000000000, 0.0000000000000000000, 1.000000000000000000 ) ) ;
#124 = DIRECTION ( 'NONE',  ( 1.000000000000000000, 0.0000000000000000000, 0.0000000000000000000 ) ) ;
#125 = SURFACE_STYLE_USAGE ( .BOTH. , #176 ) ;
#126 = CARTESIAN_POINT ( 'NONE',  ( -15.00000000000000000, 1.836970198721029600E-015, 1.380506584136770100E-026 ) ) ;
#127 = CARTESIAN_POINT ( 'NONE',  ( 15.00000000000000000, 0.0000000000000000000, 1.380506584136770100E-026 ) ) ;
#128 = UNCERTAINTY_MEASURE_WITH_UNIT (LENGTH_MEASURE( 1.000000000000000100E-005 ), #45, 'distance_accuracy_value', 'NONE');
#129 = APPLICATION_PROTOCOL_DEFINITION ( 'draft international standard', 'automotive_design', 1998, #145 ) ;
#130 =( GEOMETRIC_REPRESENTATION_CONTEXT ( 3 ) GLOBAL_UNCERTAINTY_ASSIGNED_CONTEXT ( ( #178 ) ) GLOBAL_UNIT_ASSIGNED_CONTEXT ( ( #167, #38, #21 ) ) REPRESENTATION_CONTEXT ( 'NONE', 'WORKASPACE' ) );
#131 = CIRCLE ( 'NONE', #95, 15.00000000000000000 ) ;
#132 = ORIENTED_EDGE ( 'NONE', *, *, #39, .T. ) ;
#133 = SURFACE_STYLE_FILL_AREA ( #212 ) ;
#134 = ORIENTED_EDGE ( 'NONE', *, *, #152, .F. ) ;
#135 = ADVANCED_FACE ( 'NONE', ( #116, #210 ), #8, .T. ) ;
#136 = ADVANCED_BREP_SHAPE_REPRESENTATION ( '7310041_CNAJF00', ( #77, #44 ), #138 ) ;
#137 = LINE ( 'NONE', #64, #106 ) ;
#138 =( GEOMETRIC_REPRESENTATION_CONTEXT ( 3 ) GLOBAL_UNCERTAINTY_ASSIGNED_CONTEXT ( ( #19 ) ) GLOBAL_UNIT_ASSIGNED_CONTEXT ( ( #26, #112, #158 ) ) REPRESENTATION_CONTEXT ( 'NONE', 'WORKASPACE' ) );
#139 = FILL_AREA_STYLE ('',( #154 ) ) ;
#140 = FACE_OUTER_BOUND ( 'NONE', #188, .T. ) ;
#141 = CARTESIAN_POINT ( 'NONE',  ( 0.0000000000000000000, 0.0000000000000000000, 1.380506584136770100E-026 ) ) ;
#142 = DIRECTION ( 'NONE',  ( 0.0000000000000000000, 0.0000000000000000000, 1.000000000000000000 ) ) ;
#143 = DIRECTION ( 'NONE',  ( 1.000000000000000000, 0.0000000000000000000, 0.0000000000000000000 ) ) ;
#144 = DIRECTION ( 'NONE',  ( 1.000000000000000000, 0.0000000000000000000, 0.0000000000000000000 ) ) ;
#145 = APPLICATION_CONTEXT ( 'automotive_design' ) ;
#146 = EDGE_CURVE ( 'NONE', #103, #197, #131, .T. ) ;
#147 = FACE_OUTER_BOUND ( 'NONE', #181, .T. ) ;
#148 = ORIENTED_EDGE ( 'NONE', *, *, #32, .F. ) ;
#149 = COLOUR_RGB ( '',0.7529411764705882200, 0.7529411764705882200, 0.8117647058823529400 ) ;
#150 = ORIENTED_EDGE ( 'NONE', *, *, #177, .T. ) ;
#151 = PRODUCT_DEFINITION_SHAPE ( 'NONE', 'NONE',  #209 ) ;
#152 = EDGE_CURVE ( 'NONE', #194, #103, #14, .T. ) ;
#153 = CIRCLE ( 'NONE', #49, 15.00000000000000000 ) ;
#154 = FILL_AREA_STYLE_COLOUR ( '', #149 ) ;
#155 = DIRECTION ( 'NONE',  ( 1.000000000000000000, 0.0000000000000000000, 0.0000000000000000000 ) ) ;
#156 = ORIENTED_EDGE ( 'NONE', *, *, #146, .F. ) ;
#157 = FILL_AREA_STYLE_COLOUR ( '', #105 ) ;
#158 =( NAMED_UNIT ( * ) SI_UNIT ( $, .STERADIAN. ) SOLID_ANGLE_UNIT ( ) );
#159 = CARTESIAN_POINT ( 'NONE',  ( 0.0000000000000000000, 0.0000000000000000000, 1.380506584136770100E-026 ) ) ;
#160 = CARTESIAN_POINT ( 'NONE',  ( 0.0000000000000000000, 0.0000000000000000000, 1.380506584136770100E-026 ) ) ;
#161 = CIRCLE ( 'NONE', #68, 13.00000000000000200 ) ;
#162 = ORIENTED_EDGE ( 'NONE', *, *, #80, .F. ) ;
#163 = EDGE_LOOP ( 'NONE', ( #134, #84, #183, #72 ) ) ;
#164 = EDGE_CURVE ( 'NONE', #48, #211, #137, .T. ) ;
#165 = AXIS2_PLACEMENT_3D ( 'NONE', #159, #82, #114 ) ;
#166 = SURFACE_STYLE_FILL_AREA ( #139 ) ;
#167 =( LENGTH_UNIT ( ) NAMED_UNIT ( * ) SI_UNIT ( .MILLI., .METRE. ) );
#168 = ADVANCED_FACE ( 'NONE', ( #140 ), #33, .T. ) ;
#169 = DIRECTION ( 'NONE',  ( 1.000000000000000000, 0.0000000000000000000, -0.0000000000000000000 ) ) ;
#170 = ADVANCED_FACE ( 'NONE', ( #111 ), #122, .F. ) ;
#171 = SURFACE_STYLE_USAGE ( .BOTH. , #6 ) ;
#172 = DIRECTION ( 'NONE',  ( 1.000000000000000000, 0.0000000000000000000, 0.0000000000000000000 ) ) ;
#173 = DIRECTION ( 'NONE',  ( 0.0000000000000000000, 0.0000000000000000000, 1.000000000000000000 ) ) ;
#174 = CARTESIAN_POINT ( 'NONE',  ( -13.00000000000000200, 1.592040838891559300E-015, 2000.000000000000000 ) ) ;
#175 = CARTESIAN_POINT ( 'NONE',  ( -15.00000000000000000, 1.836970198721029600E-015, 1.380506584136770100E-026 ) ) ;
#176 = SURFACE_SIDE_STYLE ('',( #133 ) ) ;
#177 = EDGE_CURVE ( 'NONE', #66, #211, #59, .T. ) ;
#178 = UNCERTAINTY_MEASURE_WITH_UNIT (LENGTH_MEASURE( 1.000000000000000100E-005 ), #167, 'distance_accuracy_value', 'NONE');
#179 = ORIENTED_EDGE ( 'NONE', *, *, #9, .T. ) ;
#180 = AXIS2_PLACEMENT_3D ( 'NONE', #41, #43, #110 ) ;
#181 = EDGE_LOOP ( 'NONE', ( #37, #148 ) ) ;
#182 = ORIENTED_EDGE ( 'NONE', *, *, #152, .T. ) ;
#183 = ORIENTED_EDGE ( 'NONE', *, *, #196, .T. ) ;
#184 = STYLED_ITEM ( 'NONE', ( #55 ), #136 ) ;
#185 = CARTESIAN_POINT ( 'NONE',  ( 0.0000000000000000000, 0.0000000000000000000, 1.380506584136770100E-026 ) ) ;
#186 = CARTESIAN_POINT ( 'NONE',  ( 13.00000000000000200, 0.0000000000000000000, 2000.000000000000000 ) ) ;
#187 = FACE_OUTER_BOUND ( 'NONE', #23, .T. ) ;
#188 = EDGE_LOOP ( 'NONE', ( #214, #182, #99, #83 ) ) ;
#189 = DIRECTION ( 'NONE',  ( 1.000000000000000000, 0.0000000000000000000, 0.0000000000000000000 ) ) ;
#190 = DIRECTION ( 'NONE',  ( 0.0000000000000000000, 0.0000000000000000000, 1.000000000000000000 ) ) ;
#191 = CARTESIAN_POINT ( 'NONE',  ( 0.0000000000000000000, 0.0000000000000000000, 2000.000000000000000 ) ) ;
#192 = DIRECTION ( 'NONE',  ( 1.000000000000000000, 0.0000000000000000000, 0.0000000000000000000 ) ) ;
#193 = PRESENTATION_STYLE_ASSIGNMENT (( #171 ) ) ;
#194 = VERTEX_POINT ( 'NONE', #126 ) ;
#195 = DIRECTION ( 'NONE',  ( 0.0000000000000000000, 0.0000000000000000000, 1.000000000000000000 ) ) ;
#196 = EDGE_CURVE ( 'NONE', #47, #197, #31, .T. ) ;
#197 = VERTEX_POINT ( 'NONE', #117 ) ;
#198 = EDGE_CURVE ( 'NONE', #47, #194, #52, .T. ) ;
#199 = CIRCLE ( 'NONE', #180, 13.00000000000000200 ) ;
#200 = EDGE_LOOP ( 'NONE', ( #10, #156 ) ) ;
#201 = STYLED_ITEM ( 'NONE', ( #193 ), #77 ) ;
#202 = VECTOR ( 'NONE', #25, 1000.000000000000000 ) ;
#203 = ORIENTED_EDGE ( 'NONE', *, *, #39, .F. ) ;
#204 = MECHANICAL_DESIGN_GEOMETRIC_PRESENTATION_REPRESENTATION (  '', ( #184 ), #70 ) ;
#205 = CARTESIAN_POINT ( 'NONE',  ( 15.00000000000000000, 0.0000000000000000000, 1.380506584136770100E-026 ) ) ;
#206 = CARTESIAN_POINT ( 'NONE',  ( 0.0000000000000000000, 0.0000000000000000000, 1.380506584136770100E-026 ) ) ;
#207 = DIRECTION ( 'NONE',  ( 1.000000000000000000, 0.0000000000000000000, 0.0000000000000000000 ) ) ;
#208 = PRODUCT_CONTEXT ( 'NONE', #115, 'mechanical' ) ;
#209 = PRODUCT_DEFINITION ( 'UNKNOWN', '', #100, #51 ) ;
#210 = FACE_OUTER_BOUND ( 'NONE', #200, .T. ) ;
#211 = VERTEX_POINT ( 'NONE', #174 ) ;
#212 = FILL_AREA_STYLE ('',( #157 ) ) ;
#213 = DIRECTION ( 'NONE',  ( 1.000000000000000000, 0.0000000000000000000, 0.0000000000000000000 ) ) ;
#214 = ORIENTED_EDGE ( 'NONE', *, *, #198, .T. ) ;
ENDSEC;
END-ISO-10303-21;
