ISO-10303-21;
HEADER;
FILE_DESCRIPTION (( 'STEP AP214' ),
    '1' );
FILE_NAME ('7251000',
    '2019-02-01T14:21:29',
    ( '' ),
    ('JUGARD+KÜNSTNER GmbH'),
    'SwSTEP 2.0',
    'SolidWorks 2017',
    '' );
FILE_SCHEMA (( 'AUTOMOTIVE_DESIGN' ));
ENDSEC;

DATA;
#1 = SURFACE_SIDE_STYLE ('',( #107 ) ) ;
#2 = FILL_AREA_STYLE_COLOUR ( '', #122 ) ;
#3 = FILL_AREA_STYLE ('',( #142 ) ) ;
#4 = MECHANICAL_DESIGN_GEOMETRIC_PRESENTATION_REPRESENTATION (  '', ( #87 ), #114 ) ;
#5 = CARTESIAN_POINT ( 'NONE',  ( 19.59655121533110000, 1.233972479037150000, -5.000000000026149700 ) ) ;
#6 = FILL_AREA_STYLE_COLOUR ( '', #124 ) ;
#7 = APPLICATION_PROTOCOL_DEFINITION ( 'draft international standard', 'automotive_design', 1998, #54 ) ;
#8 = DIRECTION ( 'NONE',  ( 7.888609052210119800E-031, -1.224646799147350000E-016, -1.000000000000000000 ) ) ;
#9 = UNCERTAINTY_MEASURE_WITH_UNIT (LENGTH_MEASURE( 1.000000000000000100E-005 ), #126, 'distance_accuracy_value', 'NONE');
#10 =( GEOMETRIC_REPRESENTATION_CONTEXT ( 3 ) GLOBAL_UNCERTAINTY_ASSIGNED_CONTEXT ( ( #110 ) ) GLOBAL_UNIT_ASSIGNED_CONTEXT ( ( #76, #42, #96 ) ) REPRESENTATION_CONTEXT ( 'NONE', 'WORKASPACE' ) );
#11 = ADVANCED_FACE ( 'NONE', ( #168 ), #127, .T. ) ;
#12 = PRESENTATION_LAYER_ASSIGNMENT (  '', '', ( #13 ) ) ;
#13 = STYLED_ITEM ( 'NONE', ( #75 ), #56 ) ;
#14 = PRODUCT_RELATED_PRODUCT_CATEGORY ( 'part', '', ( #85 ) ) ;
#15 = SURFACE_STYLE_USAGE ( .BOTH. , #1 ) ;
#16 = VECTOR ( 'NONE', #34, 1000.000000000000000 ) ;
#17 = AXIS2_PLACEMENT_3D ( 'NONE', #105, #20, #104 ) ;
#18 =( LENGTH_UNIT ( ) NAMED_UNIT ( * ) SI_UNIT ( .MILLI., .METRE. ) );
#19 = SURFACE_STYLE_USAGE ( .BOTH. , #33 ) ;
#20 = DIRECTION ( 'NONE',  ( -7.888609052210119800E-031, 1.224646799147350000E-016, 1.000000000000000000 ) ) ;
#21 = FILL_AREA_STYLE ('',( #91 ) ) ;
#22 = MECHANICAL_DESIGN_GEOMETRIC_PRESENTATION_REPRESENTATION (  '', ( #13 ), #26 ) ;
#23 = COLOUR_RGB ( '',0.7529411764705882200, 0.7529411764705882200, 0.7529411764705882200 ) ;
#24 = EDGE_LOOP ( 'NONE', ( #156, #27 ) ) ;
#25 = AXIS2_PLACEMENT_3D ( 'NONE', #46, #8, #47 ) ;
#26 =( GEOMETRIC_REPRESENTATION_CONTEXT ( 3 ) GLOBAL_UNCERTAINTY_ASSIGNED_CONTEXT ( ( #103 ) ) GLOBAL_UNIT_ASSIGNED_CONTEXT ( ( #18, #144, #131 ) ) REPRESENTATION_CONTEXT ( 'NONE', 'WORKASPACE' ) );
#27 = ORIENTED_EDGE ( 'NONE', *, *, #119, .F. ) ;
#28 = DIRECTION ( 'NONE',  ( 7.888609052210119800E-031, -1.224646799147350000E-016, -1.000000000000000000 ) ) ;
#29 = PRODUCT_DEFINITION_FORMATION_WITH_SPECIFIED_SOURCE ( 'ANY', '', #85, .NOT_KNOWN. ) ;
#30 = FILL_AREA_STYLE ('',( #2 ) ) ;
#31 = DIRECTION ( 'NONE',  ( 0.0000000000000000000, 1.000000000000000000, 0.0000000000000000000 ) ) ;
#32 = VERTEX_POINT ( 'NONE', #129 ) ;
#33 = SURFACE_SIDE_STYLE ('',( #145 ) ) ;
#34 = DIRECTION ( 'NONE',  ( 7.888609052210119800E-031, -1.224646799147350000E-016, -1.000000000000000000 ) ) ;
#35 =( NAMED_UNIT ( * ) SI_UNIT ( $, .STERADIAN. ) SOLID_ANGLE_UNIT ( ) );
#36 = CARTESIAN_POINT ( 'NONE',  ( 19.59655121533110000, -1.226027520962730000, 994.9999999999739700 ) ) ;
#37 = ORIENTED_EDGE ( 'NONE', *, *, #95, .T. ) ;
#38 = DIRECTION ( 'NONE',  ( 1.000000000000000000, 0.0000000000000000000, 0.0000000000000000000 ) ) ;
#39 = AXIS2_PLACEMENT_3D ( 'NONE', #5, #88, #99 ) ;
#40 = CIRCLE ( 'NONE', #25, 2.460000000000000400 ) ;
#41 =( GEOMETRIC_REPRESENTATION_CONTEXT ( 3 ) GLOBAL_UNCERTAINTY_ASSIGNED_CONTEXT ( ( #9 ) ) GLOBAL_UNIT_ASSIGNED_CONTEXT ( ( #126, #44, #143 ) ) REPRESENTATION_CONTEXT ( 'NONE', 'WORKASPACE' ) );
#42 =( NAMED_UNIT ( * ) PLANE_ANGLE_UNIT ( ) SI_UNIT ( $, .RADIAN. ) );
#43 = FACE_OUTER_BOUND ( 'NONE', #72, .T. ) ;
#44 =( NAMED_UNIT ( * ) PLANE_ANGLE_UNIT ( ) SI_UNIT ( $, .RADIAN. ) );
#45 = APPLICATION_CONTEXT ( 'automotive_design' ) ;
#46 = CARTESIAN_POINT ( 'NONE',  ( 19.59655121533110000, 1.233972479037269900, 994.9999999999739700 ) ) ;
#47 = DIRECTION ( 'NONE',  ( 0.0000000000000000000, 1.000000000000000000, 0.0000000000000000000 ) ) ;
#48 =( LENGTH_UNIT ( ) NAMED_UNIT ( * ) SI_UNIT ( .MILLI., .METRE. ) );
#49 = ADVANCED_FACE ( 'NONE', ( #50 ), #132, .T. ) ;
#50 = FACE_OUTER_BOUND ( 'NONE', #59, .T. ) ;
#51 = PRESENTATION_LAYER_ASSIGNMENT (  '', '', ( #62 ) ) ;
#52 = SURFACE_STYLE_USAGE ( .BOTH. , #130 ) ;
#53 = PLANE ( 'NONE',  #81 ) ;
#54 = APPLICATION_CONTEXT ( 'automotive_design' ) ;
#55 = PRESENTATION_LAYER_ASSIGNMENT (  '', '', ( #87 ) ) ;
#56 = ADVANCED_BREP_SHAPE_REPRESENTATION ( '7251000_CNAJF00', ( #123, #71 ), #170 ) ;
#57 = PRESENTATION_STYLE_ASSIGNMENT (( #15 ) ) ;
#58 = AXIS2_PLACEMENT_3D ( 'NONE', #102, #77, #68 ) ;
#59 = EDGE_LOOP ( 'NONE', ( #73, #37, #166, #113 ) ) ;
#60 = CIRCLE ( 'NONE', #125, 2.460000000000000000 ) ;
#61 = CARTESIAN_POINT ( 'NONE',  ( 19.59655121533110000, 1.233972479037269900, 994.9999999999739700 ) ) ;
#62 = STYLED_ITEM ( 'NONE', ( #158 ), #11 ) ;
#63 = DIRECTION ( 'NONE',  ( 0.0000000000000000000, 1.000000000000000000, 0.0000000000000000000 ) ) ;
#64 = CARTESIAN_POINT ( 'NONE',  ( 19.59655121533110000, 3.693972479037270300, 994.9999999999739700 ) ) ;
#65 = CARTESIAN_POINT ( 'NONE',  ( 19.59655121533110000, 1.233972479037269900, 994.9999999999739700 ) ) ;
#66 = UNCERTAINTY_MEASURE_WITH_UNIT (LENGTH_MEASURE( 1.000000000000000100E-005 ), #48, 'distance_accuracy_value', 'NONE');
#67 = MECHANICAL_DESIGN_GEOMETRIC_PRESENTATION_REPRESENTATION (  '', ( #62 ), #41 ) ;
#68 = DIRECTION ( 'NONE',  ( 0.0000000000000000000, 1.000000000000000000, 0.0000000000000000000 ) ) ;
#69 = PRODUCT_CONTEXT ( 'NONE', #54, 'mechanical' ) ;
#70 = DIRECTION ( 'NONE',  ( 0.0000000000000000000, 1.000000000000000000, 0.0000000000000000000 ) ) ;
#71 = AXIS2_PLACEMENT_3D ( 'NONE', #148, #79, #38 ) ;
#72 = EDGE_LOOP ( 'NONE', ( #165, #89 ) ) ;
#73 = ORIENTED_EDGE ( 'NONE', *, *, #106, .F. ) ;
#74 = FACE_OUTER_BOUND ( 'NONE', #24, .T. ) ;
#75 = PRESENTATION_STYLE_ASSIGNMENT (( #19 ) ) ;
#76 =( LENGTH_UNIT ( ) NAMED_UNIT ( * ) SI_UNIT ( .MILLI., .METRE. ) );
#77 = DIRECTION ( 'NONE',  ( 7.888609052210119800E-031, -1.224646799147350000E-016, -1.000000000000000000 ) ) ;
#78 =( LENGTH_UNIT ( ) NAMED_UNIT ( * ) SI_UNIT ( .MILLI., .METRE. ) );
#79 = DIRECTION ( 'NONE',  ( 0.0000000000000000000, 0.0000000000000000000, 1.000000000000000000 ) ) ;
#80 = CARTESIAN_POINT ( 'NONE',  ( 19.59655121533110000, -1.226027520962852400, -5.000000000026205700 ) ) ;
#81 = AXIS2_PLACEMENT_3D ( 'NONE', #152, #101, #90 ) ;
#82 = ORIENTED_EDGE ( 'NONE', *, *, #147, .T. ) ;
#83 = ADVANCED_FACE ( 'NONE', ( #74 ), #160, .T. ) ;
#84 = SURFACE_STYLE_FILL_AREA ( #30 ) ;
#85 = PRODUCT ( '7251000_CNAJF00', '7251000_CNAJF00', '', ( #69 ) ) ;
#86 = PRESENTATION_STYLE_ASSIGNMENT (( #52 ) ) ;
#87 = STYLED_ITEM ( 'NONE', ( #86 ), #123 ) ;
#88 = DIRECTION ( 'NONE',  ( 7.888609052210119800E-031, -1.224646799147350000E-016, -1.000000000000000000 ) ) ;
#89 = ORIENTED_EDGE ( 'NONE', *, *, #95, .F. ) ;
#90 = DIRECTION ( 'NONE',  ( 0.0000000000000000000, 1.000000000000000000, -1.224646799147350000E-016 ) ) ;
#91 = FILL_AREA_STYLE_COLOUR ( '', #23 ) ;
#92 = FILL_AREA_STYLE ('',( #6 ) ) ;
#93 = APPLICATION_PROTOCOL_DEFINITION ( 'draft international standard', 'automotive_design', 1998, #45 ) ;
#94 = LINE ( 'NONE', #64, #169 ) ;
#95 = EDGE_CURVE ( 'NONE', #32, #155, #40, .T. ) ;
#96 =( NAMED_UNIT ( * ) SI_UNIT ( $, .STERADIAN. ) SOLID_ANGLE_UNIT ( ) );
#97 = SURFACE_STYLE_FILL_AREA ( #92 ) ;
#98 = ORIENTED_EDGE ( 'NONE', *, *, #106, .T. ) ;
#99 = DIRECTION ( 'NONE',  ( 0.0000000000000000000, 1.000000000000000000, -1.224646799147350000E-016 ) ) ;
#100 = AXIS2_PLACEMENT_3D ( 'NONE', #61, #28, #31 ) ;
#101 = DIRECTION ( 'NONE',  ( 7.888609052210119800E-031, -1.224646799147350000E-016, -1.000000000000000000 ) ) ;
#102 = CARTESIAN_POINT ( 'NONE',  ( 19.59655121533110000, 1.233972479037269900, 994.9999999999739700 ) ) ;
#103 = UNCERTAINTY_MEASURE_WITH_UNIT (LENGTH_MEASURE( 1.000000000000000100E-005 ), #18, 'distance_accuracy_value', 'NONE');
#104 = DIRECTION ( 'NONE',  ( 0.0000000000000000000, 1.000000000000000000, 0.0000000000000000000 ) ) ;
#105 = CARTESIAN_POINT ( 'NONE',  ( 19.59655121533110000, 1.233972479037147600, -5.000000000026205700 ) ) ;
#106 = EDGE_CURVE ( 'NONE', #32, #136, #164, .T. ) ;
#107 = SURFACE_STYLE_FILL_AREA ( #3 ) ;
#108 = VERTEX_POINT ( 'NONE', #118 ) ;
#109 = EDGE_CURVE ( 'NONE', #155, #108, #94, .T. ) ;
#110 = UNCERTAINTY_MEASURE_WITH_UNIT (LENGTH_MEASURE( 1.000000000000000100E-005 ), #76, 'distance_accuracy_value', 'NONE');
#111 = EDGE_LOOP ( 'NONE', ( #82, #98, #117, #140 ) ) ;
#112 = AXIS2_PLACEMENT_3D ( 'NONE', #65, #161, #63 ) ;
#113 = ORIENTED_EDGE ( 'NONE', *, *, #138, .T. ) ;
#114 =( GEOMETRIC_REPRESENTATION_CONTEXT ( 3 ) GLOBAL_UNCERTAINTY_ASSIGNED_CONTEXT ( ( #137 ) ) GLOBAL_UNIT_ASSIGNED_CONTEXT ( ( #78, #163, #162 ) ) REPRESENTATION_CONTEXT ( 'NONE', 'WORKASPACE' ) );
#115 = SURFACE_STYLE_USAGE ( .BOTH. , #141 ) ;
#116 = DIRECTION ( 'NONE',  ( 7.888609052210119800E-031, -1.224646799147350000E-016, -1.000000000000000000 ) ) ;
#117 = ORIENTED_EDGE ( 'NONE', *, *, #119, .T. ) ;
#118 = CARTESIAN_POINT ( 'NONE',  ( 19.59655121533110000, 3.693972479037147300, -5.000000000026205700 ) ) ;
#119 = EDGE_CURVE ( 'NONE', #136, #108, #139, .T. ) ;
#120 = ADVANCED_FACE ( 'NONE', ( #43 ), #53, .F. ) ;
#121 = SHAPE_DEFINITION_REPRESENTATION ( #154, #56 ) ;
#122 = COLOUR_RGB ( '',1.000000000000000000, 1.000000000000000000, 1.000000000000000000 ) ;
#123 = MANIFOLD_SOLID_BREP ( 'Importiert1', #159 ) ;
#124 = COLOUR_RGB ( '',0.7529411764705882200, 0.7529411764705882200, 0.8117647058823529400 ) ;
#125 = AXIS2_PLACEMENT_3D ( 'NONE', #133, #149, #70 ) ;
#126 =( LENGTH_UNIT ( ) NAMED_UNIT ( * ) SI_UNIT ( .MILLI., .METRE. ) );
#127 = CYLINDRICAL_SURFACE ( 'NONE', #100, 2.460000000000000400 ) ;
#128 = STYLED_ITEM ( 'NONE', ( #57 ), #49 ) ;
#129 = CARTESIAN_POINT ( 'NONE',  ( 19.59655121533110000, -1.226027520962730000, 994.9999999999739700 ) ) ;
#130 = SURFACE_SIDE_STYLE ('',( #97 ) ) ;
#131 =( NAMED_UNIT ( * ) SI_UNIT ( $, .STERADIAN. ) SOLID_ANGLE_UNIT ( ) );
#132 = CYLINDRICAL_SURFACE ( 'NONE', #112, 2.460000000000000400 ) ;
#133 = CARTESIAN_POINT ( 'NONE',  ( 19.59655121533110000, 1.233972479037147600, -5.000000000026205700 ) ) ;
#134 = PRODUCT_DEFINITION ( 'UNKNOWN', '', #29, #150 ) ;
#135 =( NAMED_UNIT ( * ) PLANE_ANGLE_UNIT ( ) SI_UNIT ( $, .RADIAN. ) );
#136 = VERTEX_POINT ( 'NONE', #80 ) ;
#137 = UNCERTAINTY_MEASURE_WITH_UNIT (LENGTH_MEASURE( 1.000000000000000100E-005 ), #78, 'distance_accuracy_value', 'NONE');
#138 = EDGE_CURVE ( 'NONE', #108, #136, #60, .T. ) ;
#139 = CIRCLE ( 'NONE', #17, 2.460000000000000000 ) ;
#140 = ORIENTED_EDGE ( 'NONE', *, *, #109, .F. ) ;
#141 = SURFACE_SIDE_STYLE ('',( #84 ) ) ;
#142 = FILL_AREA_STYLE_COLOUR ( '', #153 ) ;
#143 =( NAMED_UNIT ( * ) SI_UNIT ( $, .STERADIAN. ) SOLID_ANGLE_UNIT ( ) );
#144 =( NAMED_UNIT ( * ) PLANE_ANGLE_UNIT ( ) SI_UNIT ( $, .RADIAN. ) );
#145 = SURFACE_STYLE_FILL_AREA ( #21 ) ;
#146 = CARTESIAN_POINT ( 'NONE',  ( 19.59655121533110000, 3.693972479037270300, 994.9999999999739700 ) ) ;
#147 = EDGE_CURVE ( 'NONE', #155, #32, #167, .T. ) ;
#148 = CARTESIAN_POINT ( 'NONE',  ( 0.0000000000000000000, 0.0000000000000000000, 0.0000000000000000000 ) ) ;
#149 = DIRECTION ( 'NONE',  ( -7.888609052210119800E-031, 1.224646799147350000E-016, 1.000000000000000000 ) ) ;
#150 = PRODUCT_DEFINITION_CONTEXT ( 'detailed design', #45, 'design' ) ;
#151 = PRESENTATION_LAYER_ASSIGNMENT (  '', '', ( #128 ) ) ;
#152 = CARTESIAN_POINT ( 'NONE',  ( 19.59655121533110000, 1.233972479037269900, 994.9999999999739700 ) ) ;
#153 = COLOUR_RGB ( '',1.000000000000000000, 1.000000000000000000, 1.000000000000000000 ) ;
#154 = PRODUCT_DEFINITION_SHAPE ( 'NONE', 'NONE',  #134 ) ;
#155 = VERTEX_POINT ( 'NONE', #146 ) ;
#156 = ORIENTED_EDGE ( 'NONE', *, *, #138, .F. ) ;
#157 = MECHANICAL_DESIGN_GEOMETRIC_PRESENTATION_REPRESENTATION (  '', ( #128 ), #10 ) ;
#158 = PRESENTATION_STYLE_ASSIGNMENT (( #115 ) ) ;
#159 = CLOSED_SHELL ( 'NONE', ( #11, #49, #120, #83 ) ) ;
#160 = PLANE ( 'NONE',  #39 ) ;
#161 = DIRECTION ( 'NONE',  ( 7.888609052210119800E-031, -1.224646799147350000E-016, -1.000000000000000000 ) ) ;
#162 =( NAMED_UNIT ( * ) SI_UNIT ( $, .STERADIAN. ) SOLID_ANGLE_UNIT ( ) );
#163 =( NAMED_UNIT ( * ) PLANE_ANGLE_UNIT ( ) SI_UNIT ( $, .RADIAN. ) );
#164 = LINE ( 'NONE', #36, #16 ) ;
#165 = ORIENTED_EDGE ( 'NONE', *, *, #147, .F. ) ;
#166 = ORIENTED_EDGE ( 'NONE', *, *, #109, .T. ) ;
#167 = CIRCLE ( 'NONE', #58, 2.460000000000000400 ) ;
#168 = FACE_OUTER_BOUND ( 'NONE', #111, .T. ) ;
#169 = VECTOR ( 'NONE', #116, 1000.000000000000000 ) ;
#170 =( GEOMETRIC_REPRESENTATION_CONTEXT ( 3 ) GLOBAL_UNCERTAINTY_ASSIGNED_CONTEXT ( ( #66 ) ) GLOBAL_UNIT_ASSIGNED_CONTEXT ( ( #48, #135, #35 ) ) REPRESENTATION_CONTEXT ( 'NONE', 'WORKASPACE' ) );
ENDSEC;
END-ISO-10303-21;
