ISO-10303-21;
HEADER;
FILE_DESCRIPTION (( 'STEP AP214' ),
    '1' );
FILE_NAME ('7250721',
    '2019-02-01T14:21:16',
    ( '' ),
    ('JUGARD+KÜNSTNER GmbH'),
    'SwSTEP 2.0',
    'SolidWorks 2017',
    '' );
FILE_SCHEMA (( 'AUTOMOTIVE_DESIGN' ));
ENDSEC;

DATA;
#1 = DIRECTION ( 'NONE',  ( 0.0000000000000000000, 0.0000000000000000000, -1.000000000000000000 ) ) ;
#2 = ADVANCED_FACE ( 'NONE', ( #60 ), #150, .F. ) ;
#3 = CIRCLE ( 'NONE', #161, 12.00000000000000000 ) ;
#4 = DIRECTION ( 'NONE',  ( 1.000000000000000000, 0.0000000000000000000, 0.0000000000000000000 ) ) ;
#5 = PRODUCT_DEFINITION_FORMATION_WITH_SPECIFIED_SOURCE ( 'ANY', '', #7, .NOT_KNOWN. ) ;
#6 = DIRECTION ( 'NONE',  ( 1.000000000000000000, 0.0000000000000000000, 0.0000000000000000000 ) ) ;
#7 = PRODUCT ( '7250721_CNAJF00', '7250721_CNAJF00', '', ( #27 ) ) ;
#8 = CARTESIAN_POINT ( 'NONE',  ( 0.0000000000000000000, 0.0000000000000000000, 0.0000000000000000000 ) ) ;
#9 = VERTEX_POINT ( 'NONE', #170 ) ;
#10 = EDGE_CURVE ( 'NONE', #23, #55, #108, .T. ) ;
#11 = ORIENTED_EDGE ( 'NONE', *, *, #179, .F. ) ;
#12 = APPLICATION_CONTEXT ( 'automotive_design' ) ;
#13 = CIRCLE ( 'NONE', #17, 4.200000000000000200 ) ;
#14 = EDGE_LOOP ( 'NONE', ( #48, #87, #173, #11 ) ) ;
#15 = ADVANCED_FACE ( 'NONE', ( #30 ), #155, .F. ) ;
#16 = LINE ( 'NONE', #19, #191 ) ;
#17 = AXIS2_PLACEMENT_3D ( 'NONE', #33, #185, #198 ) ;
#18 = CARTESIAN_POINT ( 'NONE',  ( 0.0000000000000000000, 0.0000000000000000000, -12.00000000000000000 ) ) ;
#19 = CARTESIAN_POINT ( 'NONE',  ( 0.0000000000000000000, 0.0000000000000000000, -4.200000000000000200 ) ) ;
#20 = ADVANCED_FACE ( 'NONE', ( #58, #177 ), #49, .F. ) ;
#21 = CARTESIAN_POINT ( 'NONE',  ( 2.000000000000000000, 5.143516556418883900E-016, 4.200000000000000200 ) ) ;
#22 = CARTESIAN_POINT ( 'NONE',  ( 2.000000000000000000, 0.0000000000000000000, 0.0000000000000000000 ) ) ;
#23 = VERTEX_POINT ( 'NONE', #79 ) ;
#24 = DIRECTION ( 'NONE',  ( 1.000000000000000000, 0.0000000000000000000, 0.0000000000000000000 ) ) ;
#25 = CARTESIAN_POINT ( 'NONE',  ( 2.000000000000000000, 0.0000000000000000000, 0.0000000000000000000 ) ) ;
#26 = COLOUR_RGB ( '',0.8745098039215686300, 0.9137254901960784000, 1.000000000000000000 ) ;
#27 = PRODUCT_CONTEXT ( 'NONE', #208, 'mechanical' ) ;
#28 = SHAPE_DEFINITION_REPRESENTATION ( #92, #164 ) ;
#29 = LINE ( 'NONE', #202, #172 ) ;
#30 = FACE_OUTER_BOUND ( 'NONE', #51, .T. ) ;
#31 = AXIS2_PLACEMENT_3D ( 'NONE', #130, #131, #214 ) ;
#32 = ORIENTED_EDGE ( 'NONE', *, *, #209, .T. ) ;
#33 = CARTESIAN_POINT ( 'NONE',  ( 0.0000000000000000000, 0.0000000000000000000, 0.0000000000000000000 ) ) ;
#34 = DIRECTION ( 'NONE',  ( 1.000000000000000000, 0.0000000000000000000, 0.0000000000000000000 ) ) ;
#35 = ORIENTED_EDGE ( 'NONE', *, *, #118, .T. ) ;
#36 = DIRECTION ( 'NONE',  ( 0.0000000000000000000, 0.0000000000000000000, -1.000000000000000000 ) ) ;
#37 = CARTESIAN_POINT ( 'NONE',  ( 0.0000000000000000000, 0.0000000000000000000, 0.0000000000000000000 ) ) ;
#38 = DIRECTION ( 'NONE',  ( 0.0000000000000000000, 0.0000000000000000000, -1.000000000000000000 ) ) ;
#39 = FILL_AREA_STYLE_COLOUR ( '', #26 ) ;
#40 = FACE_BOUND ( 'NONE', #112, .T. ) ;
#41 = APPLICATION_PROTOCOL_DEFINITION ( 'draft international standard', 'automotive_design', 1998, #208 ) ;
#42 = DIRECTION ( 'NONE',  ( 0.0000000000000000000, 0.0000000000000000000, 1.000000000000000000 ) ) ;
#43 = APPLICATION_PROTOCOL_DEFINITION ( 'draft international standard', 'automotive_design', 1998, #12 ) ;
#44 = EDGE_LOOP ( 'NONE', ( #195, #123 ) ) ;
#45 = STYLED_ITEM ( 'NONE', ( #116 ), #164 ) ;
#46 = CARTESIAN_POINT ( 'NONE',  ( 0.0000000000000000000, 5.143516556418883900E-016, 4.200000000000000200 ) ) ;
#47 =( GEOMETRIC_REPRESENTATION_CONTEXT ( 3 ) GLOBAL_UNCERTAINTY_ASSIGNED_CONTEXT ( ( #110 ) ) GLOBAL_UNIT_ASSIGNED_CONTEXT ( ( #160, #71, #68 ) ) REPRESENTATION_CONTEXT ( 'NONE', 'WORKASPACE' ) );
#48 = ORIENTED_EDGE ( 'NONE', *, *, #144, .T. ) ;
#49 = PLANE ( 'NONE',  #31 ) ;
#50 = CARTESIAN_POINT ( 'NONE',  ( 0.0000000000000000000, 0.0000000000000000000, 0.0000000000000000000 ) ) ;
#51 = EDGE_LOOP ( 'NONE', ( #103, #93, #32, #212 ) ) ;
#52 =( NAMED_UNIT ( * ) SI_UNIT ( $, .STERADIAN. ) SOLID_ANGLE_UNIT ( ) );
#53 = FILL_AREA_STYLE_COLOUR ( '', #120 ) ;
#54 = EDGE_CURVE ( 'NONE', #84, #9, #16, .T. ) ;
#55 = VERTEX_POINT ( 'NONE', #171 ) ;
#56 = VECTOR ( 'NONE', #156, 1000.000000000000000 ) ;
#57 =( NAMED_UNIT ( * ) SI_UNIT ( $, .STERADIAN. ) SOLID_ANGLE_UNIT ( ) );
#58 = FACE_BOUND ( 'NONE', #91, .T. ) ;
#59 = CARTESIAN_POINT ( 'NONE',  ( 0.0000000000000000000, 0.0000000000000000000, 0.0000000000000000000 ) ) ;
#60 = FACE_OUTER_BOUND ( 'NONE', #162, .T. ) ;
#61 = ORIENTED_EDGE ( 'NONE', *, *, #194, .T. ) ;
#62 = PRODUCT_DEFINITION ( 'UNKNOWN', '', #5, #88 ) ;
#63 = ADVANCED_FACE ( 'NONE', ( #94 ), #134, .T. ) ;
#64 = DIRECTION ( 'NONE',  ( 0.0000000000000000000, 0.0000000000000000000, -1.000000000000000000 ) ) ;
#65 = DIRECTION ( 'NONE',  ( -1.000000000000000000, -0.0000000000000000000, -0.0000000000000000000 ) ) ;
#66 = AXIS2_PLACEMENT_3D ( 'NONE', #83, #6, #97 ) ;
#67 = PLANE ( 'NONE',  #99 ) ;
#68 =( NAMED_UNIT ( * ) SI_UNIT ( $, .STERADIAN. ) SOLID_ANGLE_UNIT ( ) );
#69 = CLOSED_SHELL ( 'NONE', ( #15, #63, #20, #2, #135, #184 ) ) ;
#70 = FILL_AREA_STYLE ('',( #53 ) ) ;
#71 =( NAMED_UNIT ( * ) PLANE_ANGLE_UNIT ( ) SI_UNIT ( $, .RADIAN. ) );
#72 = CIRCLE ( 'NONE', #163, 12.00000000000000000 ) ;
#73 = SURFACE_STYLE_FILL_AREA ( #70 ) ;
#74 = ORIENTED_EDGE ( 'NONE', *, *, #179, .T. ) ;
#75 = CIRCLE ( 'NONE', #114, 4.200000000000000200 ) ;
#76 = AXIS2_PLACEMENT_3D ( 'NONE', #213, #34, #64 ) ;
#77 = DIRECTION ( 'NONE',  ( 0.0000000000000000000, 0.0000000000000000000, -1.000000000000000000 ) ) ;
#78 = CARTESIAN_POINT ( 'NONE',  ( 2.000000000000000000, 0.0000000000000000000, 0.0000000000000000000 ) ) ;
#79 = CARTESIAN_POINT ( 'NONE',  ( 0.0000000000000000000, 1.469576158976823900E-015, 12.00000000000000000 ) ) ;
#80 = VERTEX_POINT ( 'NONE', #18 ) ;
#81 = DIRECTION ( 'NONE',  ( 0.0000000000000000000, 0.0000000000000000000, -1.000000000000000000 ) ) ;
#82 = DIRECTION ( 'NONE',  ( 0.0000000000000000000, 0.0000000000000000000, -1.000000000000000000 ) ) ;
#83 = CARTESIAN_POINT ( 'NONE',  ( 0.0000000000000000000, 0.0000000000000000000, 0.0000000000000000000 ) ) ;
#84 = VERTEX_POINT ( 'NONE', #186 ) ;
#85 = SURFACE_SIDE_STYLE ('',( #73 ) ) ;
#86 = CIRCLE ( 'NONE', #66, 4.200000000000000200 ) ;
#87 = ORIENTED_EDGE ( 'NONE', *, *, #10, .T. ) ;
#88 = PRODUCT_DEFINITION_CONTEXT ( 'detailed design', #12, 'design' ) ;
#89 = DIRECTION ( 'NONE',  ( 1.000000000000000000, 0.0000000000000000000, 0.0000000000000000000 ) ) ;
#90 = PRESENTATION_STYLE_ASSIGNMENT (( #137 ) ) ;
#91 = EDGE_LOOP ( 'NONE', ( #106, #167 ) ) ;
#92 = PRODUCT_DEFINITION_SHAPE ( 'NONE', 'NONE',  #62 ) ;
#93 = ORIENTED_EDGE ( 'NONE', *, *, #127, .T. ) ;
#94 = FACE_OUTER_BOUND ( 'NONE', #14, .T. ) ;
#95 = DIRECTION ( 'NONE',  ( 1.000000000000000000, 0.0000000000000000000, 0.0000000000000000000 ) ) ;
#96 = CARTESIAN_POINT ( 'NONE',  ( 0.0000000000000000000, 0.0000000000000000000, 0.0000000000000000000 ) ) ;
#97 = DIRECTION ( 'NONE',  ( 0.0000000000000000000, 0.0000000000000000000, -1.000000000000000000 ) ) ;
#98 = ORIENTED_EDGE ( 'NONE', *, *, #54, .T. ) ;
#99 = AXIS2_PLACEMENT_3D ( 'NONE', #119, #140, #200 ) ;
#100 =( NAMED_UNIT ( * ) PLANE_ANGLE_UNIT ( ) SI_UNIT ( $, .RADIAN. ) );
#101 = AXIS2_PLACEMENT_3D ( 'NONE', #22, #204, #38 ) ;
#102 =( LENGTH_UNIT ( ) NAMED_UNIT ( * ) SI_UNIT ( .MILLI., .METRE. ) );
#103 = ORIENTED_EDGE ( 'NONE', *, *, #118, .F. ) ;
#104 = SURFACE_STYLE_USAGE ( .BOTH. , #85 ) ;
#105 = FACE_OUTER_BOUND ( 'NONE', #109, .T. ) ;
#106 = ORIENTED_EDGE ( 'NONE', *, *, #168, .F. ) ;
#107 = UNCERTAINTY_MEASURE_WITH_UNIT (LENGTH_MEASURE( 1.000000000000000100E-005 ), #192, 'distance_accuracy_value', 'NONE');
#108 = LINE ( 'NONE', #199, #56 ) ;
#109 = EDGE_LOOP ( 'NONE', ( #128, #61, #74, #196 ) ) ;
#110 = UNCERTAINTY_MEASURE_WITH_UNIT (LENGTH_MEASURE( 1.000000000000000100E-005 ), #160, 'distance_accuracy_value', 'NONE');
#111 = AXIS2_PLACEMENT_3D ( 'NONE', #152, #95, #1 ) ;
#112 = EDGE_LOOP ( 'NONE', ( #143, #35 ) ) ;
#113 = DIRECTION ( 'NONE',  ( 1.000000000000000000, 0.0000000000000000000, 0.0000000000000000000 ) ) ;
#114 = AXIS2_PLACEMENT_3D ( 'NONE', #25, #136, #145 ) ;
#115 = CARTESIAN_POINT ( 'NONE',  ( 2.000000000000000000, 0.0000000000000000000, -12.00000000000000000 ) ) ;
#116 = PRESENTATION_STYLE_ASSIGNMENT (( #104 ) ) ;
#117 = DIRECTION ( 'NONE',  ( 1.000000000000000000, 0.0000000000000000000, 0.0000000000000000000 ) ) ;
#118 = EDGE_CURVE ( 'NONE', #197, #84, #13, .T. ) ;
#119 = CARTESIAN_POINT ( 'NONE',  ( 0.0000000000000000000, 0.0000000000000000000, 0.0000000000000000000 ) ) ;
#120 = COLOUR_RGB ( '',0.7529411764705882200, 0.7529411764705882200, 0.7529411764705882200 ) ;
#121 =( NAMED_UNIT ( * ) PLANE_ANGLE_UNIT ( ) SI_UNIT ( $, .RADIAN. ) );
#122 = EDGE_CURVE ( 'NONE', #147, #55, #3, .T. ) ;
#123 = ORIENTED_EDGE ( 'NONE', *, *, #194, .F. ) ;
#124 = STYLED_ITEM ( 'NONE', ( #90 ), #169 ) ;
#125 = UNCERTAINTY_MEASURE_WITH_UNIT (LENGTH_MEASURE( 1.000000000000000100E-005 ), #102, 'distance_accuracy_value', 'NONE');
#126 =( GEOMETRIC_REPRESENTATION_CONTEXT ( 3 ) GLOBAL_UNCERTAINTY_ASSIGNED_CONTEXT ( ( #107 ) ) GLOBAL_UNIT_ASSIGNED_CONTEXT ( ( #192, #121, #57 ) ) REPRESENTATION_CONTEXT ( 'NONE', 'WORKASPACE' ) );
#127 = EDGE_CURVE ( 'NONE', #197, #129, #187, .T. ) ;
#128 = ORIENTED_EDGE ( 'NONE', *, *, #10, .F. ) ;
#129 = VERTEX_POINT ( 'NONE', #21 ) ;
#130 = CARTESIAN_POINT ( 'NONE',  ( 2.000000000000000000, 0.0000000000000000000, 0.0000000000000000000 ) ) ;
#131 = DIRECTION ( 'NONE',  ( -1.000000000000000000, 0.0000000000000000000, 0.0000000000000000000 ) ) ;
#132 = AXIS2_PLACEMENT_3D ( 'NONE', #59, #210, #154 ) ;
#133 = DIRECTION ( 'NONE',  ( 1.000000000000000000, 0.0000000000000000000, 0.0000000000000000000 ) ) ;
#134 = CYLINDRICAL_SURFACE ( 'NONE', #76, 12.00000000000000000 ) ;
#135 = ADVANCED_FACE ( 'NONE', ( #105 ), #181, .T. ) ;
#136 = DIRECTION ( 'NONE',  ( 1.000000000000000000, 0.0000000000000000000, 0.0000000000000000000 ) ) ;
#137 = SURFACE_STYLE_USAGE ( .BOTH. , #157 ) ;
#138 = CIRCLE ( 'NONE', #166, 12.00000000000000000 ) ;
#139 = PRESENTATION_LAYER_ASSIGNMENT (  '', '', ( #45 ) ) ;
#140 = DIRECTION ( 'NONE',  ( -1.000000000000000000, 0.0000000000000000000, 0.0000000000000000000 ) ) ;
#141 = PRESENTATION_LAYER_ASSIGNMENT (  '', '', ( #124 ) ) ;
#142 = DIRECTION ( 'NONE',  ( 1.000000000000000000, 0.0000000000000000000, 0.0000000000000000000 ) ) ;
#143 = ORIENTED_EDGE ( 'NONE', *, *, #159, .T. ) ;
#144 = EDGE_CURVE ( 'NONE', #80, #23, #138, .T. ) ;
#145 = DIRECTION ( 'NONE',  ( 0.0000000000000000000, 0.0000000000000000000, -1.000000000000000000 ) ) ;
#146 = VECTOR ( 'NONE', #113, 1000.000000000000000 ) ;
#147 = VERTEX_POINT ( 'NONE', #115 ) ;
#148 = CIRCLE ( 'NONE', #101, 4.200000000000000200 ) ;
#149 = AXIS2_PLACEMENT_3D ( 'NONE', #96, #133, #81 ) ;
#150 = CYLINDRICAL_SURFACE ( 'NONE', #132, 4.200000000000000200 ) ;
#151 = AXIS2_PLACEMENT_3D ( 'NONE', #50, #42, #89 ) ;
#152 = CARTESIAN_POINT ( 'NONE',  ( 0.0000000000000000000, 0.0000000000000000000, 0.0000000000000000000 ) ) ;
#153 = MECHANICAL_DESIGN_GEOMETRIC_PRESENTATION_REPRESENTATION (  '', ( #124 ), #176 ) ;
#154 = DIRECTION ( 'NONE',  ( 0.0000000000000000000, 0.0000000000000000000, -1.000000000000000000 ) ) ;
#155 = CYLINDRICAL_SURFACE ( 'NONE', #149, 4.200000000000000200 ) ;
#156 = DIRECTION ( 'NONE',  ( 1.000000000000000000, 0.0000000000000000000, 0.0000000000000000000 ) ) ;
#157 = SURFACE_SIDE_STYLE ('',( #182 ) ) ;
#158 = EDGE_LOOP ( 'NONE', ( #193, #180 ) ) ;
#159 = EDGE_CURVE ( 'NONE', #84, #197, #86, .T. ) ;
#160 =( LENGTH_UNIT ( ) NAMED_UNIT ( * ) SI_UNIT ( .MILLI., .METRE. ) );
#161 = AXIS2_PLACEMENT_3D ( 'NONE', #78, #183, #77 ) ;
#162 = EDGE_LOOP ( 'NONE', ( #201, #178, #98, #207 ) ) ;
#163 = AXIS2_PLACEMENT_3D ( 'NONE', #8, #117, #36 ) ;
#164 = ADVANCED_BREP_SHAPE_REPRESENTATION ( '7250721_CNAJF00', ( #169, #151 ), #47 ) ;
#165 = CIRCLE ( 'NONE', #205, 12.00000000000000000 ) ;
#166 = AXIS2_PLACEMENT_3D ( 'NONE', #37, #24, #82 ) ;
#167 = ORIENTED_EDGE ( 'NONE', *, *, #209, .F. ) ;
#168 = EDGE_CURVE ( 'NONE', #9, #129, #148, .T. ) ;
#169 = MANIFOLD_SOLID_BREP ( 'Importiert1', #69 ) ;
#170 = CARTESIAN_POINT ( 'NONE',  ( 2.000000000000000000, 0.0000000000000000000, -4.200000000000000200 ) ) ;
#171 = CARTESIAN_POINT ( 'NONE',  ( 2.000000000000000000, 1.469576158976823900E-015, 12.00000000000000000 ) ) ;
#172 = VECTOR ( 'NONE', #142, 1000.000000000000000 ) ;
#173 = ORIENTED_EDGE ( 'NONE', *, *, #188, .T. ) ;
#174 = MECHANICAL_DESIGN_GEOMETRIC_PRESENTATION_REPRESENTATION (  '', ( #45 ), #126 ) ;
#175 = CARTESIAN_POINT ( 'NONE',  ( 2.000000000000000000, 0.0000000000000000000, 0.0000000000000000000 ) ) ;
#176 =( GEOMETRIC_REPRESENTATION_CONTEXT ( 3 ) GLOBAL_UNCERTAINTY_ASSIGNED_CONTEXT ( ( #125 ) ) GLOBAL_UNIT_ASSIGNED_CONTEXT ( ( #102, #100, #52 ) ) REPRESENTATION_CONTEXT ( 'NONE', 'WORKASPACE' ) );
#177 = FACE_OUTER_BOUND ( 'NONE', #158, .T. ) ;
#178 = ORIENTED_EDGE ( 'NONE', *, *, #159, .F. ) ;
#179 = EDGE_CURVE ( 'NONE', #80, #147, #29, .T. ) ;
#180 = ORIENTED_EDGE ( 'NONE', *, *, #188, .F. ) ;
#181 = CYLINDRICAL_SURFACE ( 'NONE', #111, 12.00000000000000000 ) ;
#182 = SURFACE_STYLE_FILL_AREA ( #190 ) ;
#183 = DIRECTION ( 'NONE',  ( -1.000000000000000000, -0.0000000000000000000, -0.0000000000000000000 ) ) ;
#184 = ADVANCED_FACE ( 'NONE', ( #40, #211 ), #67, .T. ) ;
#185 = DIRECTION ( 'NONE',  ( 1.000000000000000000, 0.0000000000000000000, 0.0000000000000000000 ) ) ;
#186 = CARTESIAN_POINT ( 'NONE',  ( 0.0000000000000000000, 0.0000000000000000000, -4.200000000000000200 ) ) ;
#187 = LINE ( 'NONE', #46, #146 ) ;
#188 = EDGE_CURVE ( 'NONE', #55, #147, #165, .T. ) ;
#189 = DIRECTION ( 'NONE',  ( 0.0000000000000000000, 0.0000000000000000000, -1.000000000000000000 ) ) ;
#190 = FILL_AREA_STYLE ('',( #39 ) ) ;
#191 = VECTOR ( 'NONE', #4, 1000.000000000000000 ) ;
#192 =( LENGTH_UNIT ( ) NAMED_UNIT ( * ) SI_UNIT ( .MILLI., .METRE. ) );
#193 = ORIENTED_EDGE ( 'NONE', *, *, #122, .F. ) ;
#194 = EDGE_CURVE ( 'NONE', #23, #80, #72, .T. ) ;
#195 = ORIENTED_EDGE ( 'NONE', *, *, #144, .F. ) ;
#196 = ORIENTED_EDGE ( 'NONE', *, *, #122, .T. ) ;
#197 = VERTEX_POINT ( 'NONE', #203 ) ;
#198 = DIRECTION ( 'NONE',  ( 0.0000000000000000000, 0.0000000000000000000, -1.000000000000000000 ) ) ;
#199 = CARTESIAN_POINT ( 'NONE',  ( 0.0000000000000000000, 1.469576158976823900E-015, 12.00000000000000000 ) ) ;
#200 = DIRECTION ( 'NONE',  ( 0.0000000000000000000, 0.0000000000000000000, 1.000000000000000000 ) ) ;
#201 = ORIENTED_EDGE ( 'NONE', *, *, #127, .F. ) ;
#202 = CARTESIAN_POINT ( 'NONE',  ( 0.0000000000000000000, 0.0000000000000000000, -12.00000000000000000 ) ) ;
#203 = CARTESIAN_POINT ( 'NONE',  ( 0.0000000000000000000, 5.143516556418883900E-016, 4.200000000000000200 ) ) ;
#204 = DIRECTION ( 'NONE',  ( 1.000000000000000000, 0.0000000000000000000, 0.0000000000000000000 ) ) ;
#205 = AXIS2_PLACEMENT_3D ( 'NONE', #175, #65, #189 ) ;
#206 = PRODUCT_RELATED_PRODUCT_CATEGORY ( 'part', '', ( #7 ) ) ;
#207 = ORIENTED_EDGE ( 'NONE', *, *, #168, .T. ) ;
#208 = APPLICATION_CONTEXT ( 'automotive_design' ) ;
#209 = EDGE_CURVE ( 'NONE', #129, #9, #75, .T. ) ;
#210 = DIRECTION ( 'NONE',  ( 1.000000000000000000, 0.0000000000000000000, 0.0000000000000000000 ) ) ;
#211 = FACE_OUTER_BOUND ( 'NONE', #44, .T. ) ;
#212 = ORIENTED_EDGE ( 'NONE', *, *, #54, .F. ) ;
#213 = CARTESIAN_POINT ( 'NONE',  ( 0.0000000000000000000, 0.0000000000000000000, 0.0000000000000000000 ) ) ;
#214 = DIRECTION ( 'NONE',  ( 0.0000000000000000000, 0.0000000000000000000, 1.000000000000000000 ) ) ;
ENDSEC;
END-ISO-10303-21;
