ISO-10303-21;
HEADER;
FILE_DESCRIPTION (( 'STEP AP214' ),
    '1' );
FILE_NAME ('7250720',
    '2019-02-01T14:21:13',
    ( '' ),
    ('JUGARD+KÜNSTNER GmbH'),
    'SwSTEP 2.0',
    'SolidWorks 2017',
    '' );
FILE_SCHEMA (( 'AUTOMOTIVE_DESIGN' ));
ENDSEC;

DATA;
#1 = VERTEX_POINT ( 'NONE', #117 ) ;
#2 = AXIS2_PLACEMENT_3D ( 'NONE', #42, #21, #45 ) ;
#3 = DIRECTION ( 'NONE',  ( 1.000000000000000000, 0.0000000000000000000, 0.0000000000000000000 ) ) ;
#4 = PRESENTATION_STYLE_ASSIGNMENT (( #87 ) ) ;
#5 = EDGE_CURVE ( 'NONE', #57, #130, #110, .T. ) ;
#6 =( NAMED_UNIT ( * ) PLANE_ANGLE_UNIT ( ) SI_UNIT ( $, .RADIAN. ) );
#7 = FACE_OUTER_BOUND ( 'NONE', #151, .T. ) ;
#8 =( NAMED_UNIT ( * ) SI_UNIT ( $, .STERADIAN. ) SOLID_ANGLE_UNIT ( ) );
#9 = ADVANCED_FACE ( 'NONE', ( #133 ), #174, .F. ) ;
#10 =( LENGTH_UNIT ( ) NAMED_UNIT ( * ) SI_UNIT ( .MILLI., .METRE. ) );
#11 = FACE_BOUND ( 'NONE', #89, .T. ) ;
#12 = APPLICATION_CONTEXT ( 'automotive_design' ) ;
#13 = CARTESIAN_POINT ( 'NONE',  ( 0.0000000000000000000, 0.0000000000000000000, 0.0000000000000000000 ) ) ;
#14 = FACE_OUTER_BOUND ( 'NONE', #81, .T. ) ;
#15 = FILL_AREA_STYLE ('',( #67 ) ) ;
#16 = MECHANICAL_DESIGN_GEOMETRIC_PRESENTATION_REPRESENTATION (  '', ( #200 ), #59 ) ;
#17 = PRODUCT_DEFINITION_SHAPE ( 'NONE', 'NONE',  #120 ) ;
#18 = EDGE_CURVE ( 'NONE', #186, #40, #206, .T. ) ;
#19 = ORIENTED_EDGE ( 'NONE', *, *, #171, .F. ) ;
#20 = DIRECTION ( 'NONE',  ( 1.000000000000000000, 0.0000000000000000000, 0.0000000000000000000 ) ) ;
#21 = DIRECTION ( 'NONE',  ( 1.000000000000000000, 0.0000000000000000000, 0.0000000000000000000 ) ) ;
#22 = ORIENTED_EDGE ( 'NONE', *, *, #150, .T. ) ;
#23 = EDGE_CURVE ( 'NONE', #130, #57, #65, .T. ) ;
#24 = CIRCLE ( 'NONE', #44, 8.000000000000000000 ) ;
#25 = CARTESIAN_POINT ( 'NONE',  ( 1.600000000000000100, 9.797174393178825700E-016, 8.000000000000000000 ) ) ;
#26 = ORIENTED_EDGE ( 'NONE', *, *, #37, .T. ) ;
#27 = CARTESIAN_POINT ( 'NONE',  ( 0.0000000000000000000, 5.143516556418883900E-016, 4.200000000000000200 ) ) ;
#28 = ADVANCED_FACE ( 'NONE', ( #7 ), #118, .F. ) ;
#29 = EDGE_CURVE ( 'NONE', #143, #186, #114, .T. ) ;
#30 = DIRECTION ( 'NONE',  ( 1.000000000000000000, 0.0000000000000000000, 0.0000000000000000000 ) ) ;
#31 = FACE_OUTER_BOUND ( 'NONE', #184, .T. ) ;
#32 = DIRECTION ( 'NONE',  ( 1.000000000000000000, 0.0000000000000000000, 0.0000000000000000000 ) ) ;
#33 =( NAMED_UNIT ( * ) PLANE_ANGLE_UNIT ( ) SI_UNIT ( $, .RADIAN. ) );
#34 = EDGE_CURVE ( 'NONE', #130, #148, #80, .T. ) ;
#35 =( LENGTH_UNIT ( ) NAMED_UNIT ( * ) SI_UNIT ( .MILLI., .METRE. ) );
#36 = ORIENTED_EDGE ( 'NONE', *, *, #23, .F. ) ;
#37 = EDGE_CURVE ( 'NONE', #186, #143, #84, .T. ) ;
#38 = UNCERTAINTY_MEASURE_WITH_UNIT (LENGTH_MEASURE( 1.000000000000000100E-005 ), #10, 'distance_accuracy_value', 'NONE');
#39 = SURFACE_STYLE_FILL_AREA ( #15 ) ;
#40 = VERTEX_POINT ( 'NONE', #88 ) ;
#41 = CLOSED_SHELL ( 'NONE', ( #28, #140, #158, #9, #90, #162 ) ) ;
#42 = CARTESIAN_POINT ( 'NONE',  ( 0.0000000000000000000, 0.0000000000000000000, 0.0000000000000000000 ) ) ;
#43 = UNCERTAINTY_MEASURE_WITH_UNIT (LENGTH_MEASURE( 1.000000000000000100E-005 ), #35, 'distance_accuracy_value', 'NONE');
#44 = AXIS2_PLACEMENT_3D ( 'NONE', #77, #94, #62 ) ;
#45 = DIRECTION ( 'NONE',  ( 0.0000000000000000000, 0.0000000000000000000, -1.000000000000000000 ) ) ;
#46 = AXIS2_PLACEMENT_3D ( 'NONE', #152, #166, #153 ) ;
#47 = FILL_AREA_STYLE_COLOUR ( '', #92 ) ;
#48 = LINE ( 'NONE', #160, #147 ) ;
#49 = DIRECTION ( 'NONE',  ( 0.0000000000000000000, 0.0000000000000000000, -1.000000000000000000 ) ) ;
#50 = DIRECTION ( 'NONE',  ( 0.0000000000000000000, 0.0000000000000000000, -1.000000000000000000 ) ) ;
#51 = DIRECTION ( 'NONE',  ( 1.000000000000000000, 0.0000000000000000000, 0.0000000000000000000 ) ) ;
#52 = CARTESIAN_POINT ( 'NONE',  ( 0.0000000000000000000, 0.0000000000000000000, -8.000000000000000000 ) ) ;
#53 = ORIENTED_EDGE ( 'NONE', *, *, #187, .F. ) ;
#54 = FACE_OUTER_BOUND ( 'NONE', #115, .T. ) ;
#55 = AXIS2_PLACEMENT_3D ( 'NONE', #86, #159, #105 ) ;
#56 = ORIENTED_EDGE ( 'NONE', *, *, #113, .T. ) ;
#57 = VERTEX_POINT ( 'NONE', #141 ) ;
#58 = ORIENTED_EDGE ( 'NONE', *, *, #5, .T. ) ;
#59 =( GEOMETRIC_REPRESENTATION_CONTEXT ( 3 ) GLOBAL_UNCERTAINTY_ASSIGNED_CONTEXT ( ( #38 ) ) GLOBAL_UNIT_ASSIGNED_CONTEXT ( ( #10, #33, #112 ) ) REPRESENTATION_CONTEXT ( 'NONE', 'WORKASPACE' ) );
#60 =( LENGTH_UNIT ( ) NAMED_UNIT ( * ) SI_UNIT ( .MILLI., .METRE. ) );
#61 = CARTESIAN_POINT ( 'NONE',  ( 0.0000000000000000000, 0.0000000000000000000, 0.0000000000000000000 ) ) ;
#62 = DIRECTION ( 'NONE',  ( 0.0000000000000000000, 0.0000000000000000000, -1.000000000000000000 ) ) ;
#63 = AXIS2_PLACEMENT_3D ( 'NONE', #189, #73, #137 ) ;
#64 = DIRECTION ( 'NONE',  ( 0.0000000000000000000, 0.0000000000000000000, 1.000000000000000000 ) ) ;
#65 = CIRCLE ( 'NONE', #72, 8.000000000000000000 ) ;
#66 = ORIENTED_EDGE ( 'NONE', *, *, #29, .T. ) ;
#67 = FILL_AREA_STYLE_COLOUR ( '', #69 ) ;
#68 = PRODUCT_DEFINITION_CONTEXT ( 'detailed design', #79, 'design' ) ;
#69 = COLOUR_RGB ( '',0.7529411764705882200, 0.7529411764705882200, 0.7529411764705882200 ) ;
#70 = VECTOR ( 'NONE', #116, 1000.000000000000000 ) ;
#71 = VECTOR ( 'NONE', #165, 1000.000000000000000 ) ;
#72 = AXIS2_PLACEMENT_3D ( 'NONE', #214, #100, #201 ) ;
#73 = DIRECTION ( 'NONE',  ( -1.000000000000000000, -0.0000000000000000000, -0.0000000000000000000 ) ) ;
#74 = ADVANCED_BREP_SHAPE_REPRESENTATION ( '7250720_CNAJF00', ( #145, #193 ), #108 ) ;
#75 = AXIS2_PLACEMENT_3D ( 'NONE', #98, #3, #134 ) ;
#76 = CIRCLE ( 'NONE', #154, 4.200000000000000200 ) ;
#77 = CARTESIAN_POINT ( 'NONE',  ( 1.600000000000000100, 0.0000000000000000000, 0.0000000000000000000 ) ) ;
#78 = ORIENTED_EDGE ( 'NONE', *, *, #164, .T. ) ;
#79 = APPLICATION_CONTEXT ( 'automotive_design' ) ;
#80 = LINE ( 'NONE', #83, #178 ) ;
#81 = EDGE_LOOP ( 'NONE', ( #123, #96 ) ) ;
#82 = EDGE_LOOP ( 'NONE', ( #155, #19 ) ) ;
#83 = CARTESIAN_POINT ( 'NONE',  ( 0.0000000000000000000, 9.797174393178825700E-016, 8.000000000000000000 ) ) ;
#84 = CIRCLE ( 'NONE', #101, 4.200000000000000200 ) ;
#85 = ORIENTED_EDGE ( 'NONE', *, *, #113, .F. ) ;
#86 = CARTESIAN_POINT ( 'NONE',  ( 0.0000000000000000000, 0.0000000000000000000, 0.0000000000000000000 ) ) ;
#87 = SURFACE_STYLE_USAGE ( .BOTH. , #104 ) ;
#88 = CARTESIAN_POINT ( 'NONE',  ( 1.600000000000000100, 0.0000000000000000000, -4.200000000000000200 ) ) ;
#89 = EDGE_LOOP ( 'NONE', ( #26, #66 ) ) ;
#90 = ADVANCED_FACE ( 'NONE', ( #170 ), #132, .T. ) ;
#91 = DIRECTION ( 'NONE',  ( 1.000000000000000000, 0.0000000000000000000, 0.0000000000000000000 ) ) ;
#92 = COLOUR_RGB ( '',0.8745098039215686300, 0.9137254901960784000, 1.000000000000000000 ) ;
#93 =( NAMED_UNIT ( * ) PLANE_ANGLE_UNIT ( ) SI_UNIT ( $, .RADIAN. ) );
#94 = DIRECTION ( 'NONE',  ( -1.000000000000000000, -0.0000000000000000000, -0.0000000000000000000 ) ) ;
#95 = EDGE_LOOP ( 'NONE', ( #167, #199, #212, #163 ) ) ;
#96 = ORIENTED_EDGE ( 'NONE', *, *, #150, .F. ) ;
#97 = AXIS2_PLACEMENT_3D ( 'NONE', #138, #91, #50 ) ;
#98 = CARTESIAN_POINT ( 'NONE',  ( 0.0000000000000000000, 0.0000000000000000000, 0.0000000000000000000 ) ) ;
#99 = FACE_BOUND ( 'NONE', #82, .T. ) ;
#100 = DIRECTION ( 'NONE',  ( 1.000000000000000000, 0.0000000000000000000, 0.0000000000000000000 ) ) ;
#101 = AXIS2_PLACEMENT_3D ( 'NONE', #190, #32, #122 ) ;
#102 = FILL_AREA_STYLE ('',( #47 ) ) ;
#103 = PRESENTATION_LAYER_ASSIGNMENT (  '', '', ( #135 ) ) ;
#104 = SURFACE_SIDE_STYLE ('',( #198 ) ) ;
#105 = DIRECTION ( 'NONE',  ( 0.0000000000000000000, 0.0000000000000000000, -1.000000000000000000 ) ) ;
#106 = CARTESIAN_POINT ( 'NONE',  ( 0.0000000000000000000, 0.0000000000000000000, 0.0000000000000000000 ) ) ;
#107 = SURFACE_STYLE_USAGE ( .BOTH. , #194 ) ;
#108 =( GEOMETRIC_REPRESENTATION_CONTEXT ( 3 ) GLOBAL_UNCERTAINTY_ASSIGNED_CONTEXT ( ( #43 ) ) GLOBAL_UNIT_ASSIGNED_CONTEXT ( ( #35, #93, #211 ) ) REPRESENTATION_CONTEXT ( 'NONE', 'WORKASPACE' ) );
#109 = LINE ( 'NONE', #52, #71 ) ;
#110 = CIRCLE ( 'NONE', #2, 8.000000000000000000 ) ;
#111 = CARTESIAN_POINT ( 'NONE',  ( 0.0000000000000000000, 0.0000000000000000000, -4.200000000000000200 ) ) ;
#112 =( NAMED_UNIT ( * ) SI_UNIT ( $, .STERADIAN. ) SOLID_ANGLE_UNIT ( ) );
#113 = EDGE_CURVE ( 'NONE', #143, #169, #48, .T. ) ;
#114 = CIRCLE ( 'NONE', #55, 4.200000000000000200 ) ;
#115 = EDGE_LOOP ( 'NONE', ( #58, #192, #22, #53 ) ) ;
#116 = DIRECTION ( 'NONE',  ( 1.000000000000000000, 0.0000000000000000000, 0.0000000000000000000 ) ) ;
#117 = CARTESIAN_POINT ( 'NONE',  ( 1.600000000000000100, 0.0000000000000000000, -8.000000000000000000 ) ) ;
#118 = CYLINDRICAL_SURFACE ( 'NONE', #75, 4.200000000000000200 ) ;
#119 = ORIENTED_EDGE ( 'NONE', *, *, #171, .T. ) ;
#120 = PRODUCT_DEFINITION ( 'UNKNOWN', '', #131, #68 ) ;
#121 = ORIENTED_EDGE ( 'NONE', *, *, #29, .F. ) ;
#122 = DIRECTION ( 'NONE',  ( 0.0000000000000000000, 0.0000000000000000000, -1.000000000000000000 ) ) ;
#123 = ORIENTED_EDGE ( 'NONE', *, *, #124, .F. ) ;
#124 = EDGE_CURVE ( 'NONE', #1, #148, #136, .T. ) ;
#125 = CARTESIAN_POINT ( 'NONE',  ( 0.0000000000000000000, 9.797174393178825700E-016, 8.000000000000000000 ) ) ;
#126 = UNCERTAINTY_MEASURE_WITH_UNIT (LENGTH_MEASURE( 1.000000000000000100E-005 ), #60, 'distance_accuracy_value', 'NONE');
#127 = APPLICATION_PROTOCOL_DEFINITION ( 'draft international standard', 'automotive_design', 1998, #79 ) ;
#128 = DIRECTION ( 'NONE',  ( -1.000000000000000000, 0.0000000000000000000, 0.0000000000000000000 ) ) ;
#129 = DIRECTION ( 'NONE',  ( 1.000000000000000000, 0.0000000000000000000, 0.0000000000000000000 ) ) ;
#130 = VERTEX_POINT ( 'NONE', #125 ) ;
#131 = PRODUCT_DEFINITION_FORMATION_WITH_SPECIFIED_SOURCE ( 'ANY', '', #168, .NOT_KNOWN. ) ;
#132 = CYLINDRICAL_SURFACE ( 'NONE', #97, 8.000000000000000000 ) ;
#133 = FACE_OUTER_BOUND ( 'NONE', #179, .T. ) ;
#134 = DIRECTION ( 'NONE',  ( 0.0000000000000000000, 0.0000000000000000000, -1.000000000000000000 ) ) ;
#135 = STYLED_ITEM ( 'NONE', ( #4 ), #145 ) ;
#136 = CIRCLE ( 'NONE', #63, 8.000000000000000000 ) ;
#137 = DIRECTION ( 'NONE',  ( 0.0000000000000000000, 0.0000000000000000000, -1.000000000000000000 ) ) ;
#138 = CARTESIAN_POINT ( 'NONE',  ( 0.0000000000000000000, 0.0000000000000000000, 0.0000000000000000000 ) ) ;
#139 = AXIS2_PLACEMENT_3D ( 'NONE', #197, #128, #207 ) ;
#140 = ADVANCED_FACE ( 'NONE', ( #54 ), #213, .T. ) ;
#141 = CARTESIAN_POINT ( 'NONE',  ( 0.0000000000000000000, 0.0000000000000000000, -8.000000000000000000 ) ) ;
#142 = CIRCLE ( 'NONE', #185, 4.200000000000000200 ) ;
#143 = VERTEX_POINT ( 'NONE', #27 ) ;
#144 = CARTESIAN_POINT ( 'NONE',  ( 1.600000000000000100, 0.0000000000000000000, 0.0000000000000000000 ) ) ;
#145 = MANIFOLD_SOLID_BREP ( 'Importiert1', #41 ) ;
#146 = DIRECTION ( 'NONE',  ( 0.0000000000000000000, 0.0000000000000000000, -1.000000000000000000 ) ) ;
#147 = VECTOR ( 'NONE', #204, 1000.000000000000000 ) ;
#148 = VERTEX_POINT ( 'NONE', #25 ) ;
#149 = AXIS2_PLACEMENT_3D ( 'NONE', #13, #208, #64 ) ;
#150 = EDGE_CURVE ( 'NONE', #148, #1, #24, .T. ) ;
#151 = EDGE_LOOP ( 'NONE', ( #121, #56, #119, #203 ) ) ;
#152 = CARTESIAN_POINT ( 'NONE',  ( 0.0000000000000000000, 0.0000000000000000000, 0.0000000000000000000 ) ) ;
#153 = DIRECTION ( 'NONE',  ( 0.0000000000000000000, 0.0000000000000000000, -1.000000000000000000 ) ) ;
#154 = AXIS2_PLACEMENT_3D ( 'NONE', #173, #129, #209 ) ;
#155 = ORIENTED_EDGE ( 'NONE', *, *, #164, .F. ) ;
#156 =( GEOMETRIC_REPRESENTATION_CONTEXT ( 3 ) GLOBAL_UNCERTAINTY_ASSIGNED_CONTEXT ( ( #126 ) ) GLOBAL_UNIT_ASSIGNED_CONTEXT ( ( #60, #6, #8 ) ) REPRESENTATION_CONTEXT ( 'NONE', 'WORKASPACE' ) );
#157 = ORIENTED_EDGE ( 'NONE', *, *, #18, .T. ) ;
#158 = ADVANCED_FACE ( 'NONE', ( #99, #14 ), #172, .F. ) ;
#159 = DIRECTION ( 'NONE',  ( 1.000000000000000000, 0.0000000000000000000, 0.0000000000000000000 ) ) ;
#160 = CARTESIAN_POINT ( 'NONE',  ( 0.0000000000000000000, 5.143516556418883900E-016, 4.200000000000000200 ) ) ;
#161 = APPLICATION_PROTOCOL_DEFINITION ( 'draft international standard', 'automotive_design', 1998, #12 ) ;
#162 = ADVANCED_FACE ( 'NONE', ( #11, #31 ), #210, .T. ) ;
#163 = ORIENTED_EDGE ( 'NONE', *, *, #124, .T. ) ;
#164 = EDGE_CURVE ( 'NONE', #40, #169, #76, .T. ) ;
#165 = DIRECTION ( 'NONE',  ( 1.000000000000000000, 0.0000000000000000000, 0.0000000000000000000 ) ) ;
#166 = DIRECTION ( 'NONE',  ( 1.000000000000000000, 0.0000000000000000000, 0.0000000000000000000 ) ) ;
#167 = ORIENTED_EDGE ( 'NONE', *, *, #34, .F. ) ;
#168 = PRODUCT ( '7250720_CNAJF00', '7250720_CNAJF00', '', ( #177 ) ) ;
#169 = VERTEX_POINT ( 'NONE', #176 ) ;
#170 = FACE_OUTER_BOUND ( 'NONE', #95, .T. ) ;
#171 = EDGE_CURVE ( 'NONE', #169, #40, #142, .T. ) ;
#172 = PLANE ( 'NONE',  #139 ) ;
#173 = CARTESIAN_POINT ( 'NONE',  ( 1.600000000000000100, 0.0000000000000000000, 0.0000000000000000000 ) ) ;
#174 = CYLINDRICAL_SURFACE ( 'NONE', #46, 4.200000000000000200 ) ;
#175 = MECHANICAL_DESIGN_GEOMETRIC_PRESENTATION_REPRESENTATION (  '', ( #135 ), #156 ) ;
#176 = CARTESIAN_POINT ( 'NONE',  ( 1.600000000000000100, 5.143516556418883900E-016, 4.200000000000000200 ) ) ;
#177 = PRODUCT_CONTEXT ( 'NONE', #12, 'mechanical' ) ;
#178 = VECTOR ( 'NONE', #20, 1000.000000000000000 ) ;
#179 = EDGE_LOOP ( 'NONE', ( #85, #188, #157, #78 ) ) ;
#180 = PRODUCT_RELATED_PRODUCT_CATEGORY ( 'part', '', ( #168 ) ) ;
#181 = AXIS2_PLACEMENT_3D ( 'NONE', #106, #30, #49 ) ;
#182 = ORIENTED_EDGE ( 'NONE', *, *, #5, .F. ) ;
#183 = PRESENTATION_STYLE_ASSIGNMENT (( #107 ) ) ;
#184 = EDGE_LOOP ( 'NONE', ( #182, #36 ) ) ;
#185 = AXIS2_PLACEMENT_3D ( 'NONE', #144, #195, #146 ) ;
#186 = VERTEX_POINT ( 'NONE', #111 ) ;
#187 = EDGE_CURVE ( 'NONE', #57, #1, #109, .T. ) ;
#188 = ORIENTED_EDGE ( 'NONE', *, *, #37, .F. ) ;
#189 = CARTESIAN_POINT ( 'NONE',  ( 1.600000000000000100, 0.0000000000000000000, 0.0000000000000000000 ) ) ;
#190 = CARTESIAN_POINT ( 'NONE',  ( 0.0000000000000000000, 0.0000000000000000000, 0.0000000000000000000 ) ) ;
#191 = SHAPE_DEFINITION_REPRESENTATION ( #17, #74 ) ;
#192 = ORIENTED_EDGE ( 'NONE', *, *, #34, .T. ) ;
#193 = AXIS2_PLACEMENT_3D ( 'NONE', #61, #196, #51 ) ;
#194 = SURFACE_SIDE_STYLE ('',( #39 ) ) ;
#195 = DIRECTION ( 'NONE',  ( 1.000000000000000000, 0.0000000000000000000, 0.0000000000000000000 ) ) ;
#196 = DIRECTION ( 'NONE',  ( 0.0000000000000000000, 0.0000000000000000000, 1.000000000000000000 ) ) ;
#197 = CARTESIAN_POINT ( 'NONE',  ( 1.600000000000000100, 0.0000000000000000000, 0.0000000000000000000 ) ) ;
#198 = SURFACE_STYLE_FILL_AREA ( #102 ) ;
#199 = ORIENTED_EDGE ( 'NONE', *, *, #23, .T. ) ;
#200 = STYLED_ITEM ( 'NONE', ( #183 ), #74 ) ;
#201 = DIRECTION ( 'NONE',  ( 0.0000000000000000000, 0.0000000000000000000, -1.000000000000000000 ) ) ;
#202 = CARTESIAN_POINT ( 'NONE',  ( 0.0000000000000000000, 0.0000000000000000000, -4.200000000000000200 ) ) ;
#203 = ORIENTED_EDGE ( 'NONE', *, *, #18, .F. ) ;
#204 = DIRECTION ( 'NONE',  ( 1.000000000000000000, 0.0000000000000000000, 0.0000000000000000000 ) ) ;
#205 = PRESENTATION_LAYER_ASSIGNMENT (  '', '', ( #200 ) ) ;
#206 = LINE ( 'NONE', #202, #70 ) ;
#207 = DIRECTION ( 'NONE',  ( 0.0000000000000000000, 0.0000000000000000000, 1.000000000000000000 ) ) ;
#208 = DIRECTION ( 'NONE',  ( -1.000000000000000000, 0.0000000000000000000, 0.0000000000000000000 ) ) ;
#209 = DIRECTION ( 'NONE',  ( 0.0000000000000000000, 0.0000000000000000000, -1.000000000000000000 ) ) ;
#210 = PLANE ( 'NONE',  #149 ) ;
#211 =( NAMED_UNIT ( * ) SI_UNIT ( $, .STERADIAN. ) SOLID_ANGLE_UNIT ( ) );
#212 = ORIENTED_EDGE ( 'NONE', *, *, #187, .T. ) ;
#213 = CYLINDRICAL_SURFACE ( 'NONE', #181, 8.000000000000000000 ) ;
#214 = CARTESIAN_POINT ( 'NONE',  ( 0.0000000000000000000, 0.0000000000000000000, 0.0000000000000000000 ) ) ;
ENDSEC;
END-ISO-10303-21;
