ISO-10303-21;
HEADER;
FILE_DESCRIPTION (( 'STEP AP214' ),
    '1' );
FILE_NAME ('7250716',
    '2019-02-01T14:21:14',
    ( '' ),
    ('JUGARD+KÜNSTNER GmbH'),
    'SwSTEP 2.0',
    'SolidWorks 2017',
    '' );
FILE_SCHEMA (( 'AUTOMOTIVE_DESIGN' ));
ENDSEC;

DATA;
#1 = ORIENTED_EDGE ( 'NONE', *, *, #153, .T. ) ;
#2 = CARTESIAN_POINT ( 'NONE',  ( 0.0000000000000000000, 0.0000000000000000000, -3.200000000000000200 ) ) ;
#3 = CARTESIAN_POINT ( 'NONE',  ( 0.0000000000000000000, 3.918869757271530500E-016, 3.200000000000000200 ) ) ;
#4 = EDGE_LOOP ( 'NONE', ( #89, #20 ) ) ;
#5 =( LENGTH_UNIT ( ) NAMED_UNIT ( * ) SI_UNIT ( .MILLI., .METRE. ) );
#6 = DIRECTION ( 'NONE',  ( 0.0000000000000000000, 0.0000000000000000000, -1.000000000000000000 ) ) ;
#7 = PRESENTATION_STYLE_ASSIGNMENT (( #210 ) ) ;
#8 = CARTESIAN_POINT ( 'NONE',  ( 0.0000000000000000000, 0.0000000000000000000, 0.0000000000000000000 ) ) ;
#9 = AXIS2_PLACEMENT_3D ( 'NONE', #27, #53, #6 ) ;
#10 = APPLICATION_CONTEXT ( 'automotive_design' ) ;
#11 = ORIENTED_EDGE ( 'NONE', *, *, #135, .F. ) ;
#12 = ADVANCED_FACE ( 'NONE', ( #176 ), #205, .F. ) ;
#13 = CARTESIAN_POINT ( 'NONE',  ( 1.600000000000000100, 0.0000000000000000000, -9.000000000000001800 ) ) ;
#14 = DIRECTION ( 'NONE',  ( 0.0000000000000000000, 0.0000000000000000000, -1.000000000000000000 ) ) ;
#15 = PLANE ( 'NONE',  #51 ) ;
#16 = EDGE_CURVE ( 'NONE', #149, #56, #79, .T. ) ;
#17 = CARTESIAN_POINT ( 'NONE',  ( 1.600000000000000100, 0.0000000000000000000, 0.0000000000000000000 ) ) ;
#18 = AXIS2_PLACEMENT_3D ( 'NONE', #91, #201, #144 ) ;
#19 = ORIENTED_EDGE ( 'NONE', *, *, #141, .F. ) ;
#20 = ORIENTED_EDGE ( 'NONE', *, *, #129, .T. ) ;
#21 = CARTESIAN_POINT ( 'NONE',  ( 1.600000000000000100, 0.0000000000000000000, 0.0000000000000000000 ) ) ;
#22 = AXIS2_PLACEMENT_3D ( 'NONE', #8, #188, #116 ) ;
#23 = EDGE_LOOP ( 'NONE', ( #104, #1, #127, #134 ) ) ;
#24 = DIRECTION ( 'NONE',  ( 1.000000000000000000, 0.0000000000000000000, 0.0000000000000000000 ) ) ;
#25 = CIRCLE ( 'NONE', #85, 9.000000000000001800 ) ;
#26 =( NAMED_UNIT ( * ) PLANE_ANGLE_UNIT ( ) SI_UNIT ( $, .RADIAN. ) );
#27 = CARTESIAN_POINT ( 'NONE',  ( 0.0000000000000000000, 0.0000000000000000000, 0.0000000000000000000 ) ) ;
#28 = EDGE_CURVE ( 'NONE', #149, #122, #50, .T. ) ;
#29 = ORIENTED_EDGE ( 'NONE', *, *, #129, .F. ) ;
#30 = UNCERTAINTY_MEASURE_WITH_UNIT (LENGTH_MEASURE( 1.000000000000000100E-005 ), #105, 'distance_accuracy_value', 'NONE');
#31 = DIRECTION ( 'NONE',  ( 0.0000000000000000000, 0.0000000000000000000, 1.000000000000000000 ) ) ;
#32 =( LENGTH_UNIT ( ) NAMED_UNIT ( * ) SI_UNIT ( .MILLI., .METRE. ) );
#33 = CIRCLE ( 'NONE', #212, 9.000000000000001800 ) ;
#34 = PLANE ( 'NONE',  #146 ) ;
#35 = FACE_OUTER_BOUND ( 'NONE', #4, .T. ) ;
#36 = FILL_AREA_STYLE_COLOUR ( '', #69 ) ;
#37 = CARTESIAN_POINT ( 'NONE',  ( 0.0000000000000000000, 0.0000000000000000000, 0.0000000000000000000 ) ) ;
#38 = STYLED_ITEM ( 'NONE', ( #148 ), #75 ) ;
#39 = VERTEX_POINT ( 'NONE', #115 ) ;
#40 = ORIENTED_EDGE ( 'NONE', *, *, #103, .T. ) ;
#41 = DIRECTION ( 'NONE',  ( 1.000000000000000000, 0.0000000000000000000, 0.0000000000000000000 ) ) ;
#42 = AXIS2_PLACEMENT_3D ( 'NONE', #168, #82, #114 ) ;
#43 = VERTEX_POINT ( 'NONE', #93 ) ;
#44 = ORIENTED_EDGE ( 'NONE', *, *, #202, .T. ) ;
#45 = FILL_AREA_STYLE_COLOUR ( '', #92 ) ;
#46 = PRODUCT_DEFINITION_CONTEXT ( 'detailed design', #10, 'design' ) ;
#47 =( NAMED_UNIT ( * ) PLANE_ANGLE_UNIT ( ) SI_UNIT ( $, .RADIAN. ) );
#48 = SURFACE_STYLE_FILL_AREA ( #161 ) ;
#49 = CARTESIAN_POINT ( 'NONE',  ( 0.0000000000000000000, 0.0000000000000000000, -9.000000000000001800 ) ) ;
#50 = LINE ( 'NONE', #49, #196 ) ;
#51 = AXIS2_PLACEMENT_3D ( 'NONE', #155, #98, #100 ) ;
#52 = PRODUCT_CONTEXT ( 'NONE', #106, 'mechanical' ) ;
#53 = DIRECTION ( 'NONE',  ( 1.000000000000000000, 0.0000000000000000000, 0.0000000000000000000 ) ) ;
#54 = ADVANCED_FACE ( 'NONE', ( #94, #35 ), #34, .T. ) ;
#55 = ORIENTED_EDGE ( 'NONE', *, *, #28, .F. ) ;
#56 = VERTEX_POINT ( 'NONE', #179 ) ;
#57 = CARTESIAN_POINT ( 'NONE',  ( 0.0000000000000000000, 1.102182119232617900E-015, 9.000000000000001800 ) ) ;
#58 = EDGE_CURVE ( 'NONE', #39, #43, #77, .T. ) ;
#59 = CIRCLE ( 'NONE', #102, 3.200000000000000200 ) ;
#60 = CLOSED_SHELL ( 'NONE', ( #12, #181, #54, #110, #214, #183 ) ) ;
#61 = ORIENTED_EDGE ( 'NONE', *, *, #202, .F. ) ;
#62 = CIRCLE ( 'NONE', #159, 3.200000000000000200 ) ;
#63 =( GEOMETRIC_REPRESENTATION_CONTEXT ( 3 ) GLOBAL_UNCERTAINTY_ASSIGNED_CONTEXT ( ( #30 ) ) GLOBAL_UNIT_ASSIGNED_CONTEXT ( ( #105, #47, #128 ) ) REPRESENTATION_CONTEXT ( 'NONE', 'WORKASPACE' ) );
#64 = SURFACE_SIDE_STYLE ('',( #48 ) ) ;
#65 = AXIS2_PLACEMENT_3D ( 'NONE', #166, #70, #186 ) ;
#66 = VERTEX_POINT ( 'NONE', #113 ) ;
#67 = APPLICATION_PROTOCOL_DEFINITION ( 'draft international standard', 'automotive_design', 1998, #10 ) ;
#68 = AXIS2_PLACEMENT_3D ( 'NONE', #138, #86, #194 ) ;
#69 = COLOUR_RGB ( '',0.8745098039215686300, 0.9137254901960784000, 1.000000000000000000 ) ;
#70 = DIRECTION ( 'NONE',  ( -1.000000000000000000, -0.0000000000000000000, -0.0000000000000000000 ) ) ;
#71 = CARTESIAN_POINT ( 'NONE',  ( 1.600000000000000100, 0.0000000000000000000, 0.0000000000000000000 ) ) ;
#72 = EDGE_LOOP ( 'NONE', ( #29, #136, #209, #55 ) ) ;
#73 = CARTESIAN_POINT ( 'NONE',  ( 1.600000000000000100, 0.0000000000000000000, 0.0000000000000000000 ) ) ;
#74 = FACE_OUTER_BOUND ( 'NONE', #81, .T. ) ;
#75 = MANIFOLD_SOLID_BREP ( 'Importiert1', #60 ) ;
#76 = FACE_OUTER_BOUND ( 'NONE', #72, .T. ) ;
#77 = CIRCLE ( 'NONE', #169, 3.200000000000000200 ) ;
#78 = ORIENTED_EDGE ( 'NONE', *, *, #141, .T. ) ;
#79 = CIRCLE ( 'NONE', #22, 9.000000000000001800 ) ;
#80 = AXIS2_PLACEMENT_3D ( 'NONE', #177, #24, #207 ) ;
#81 = EDGE_LOOP ( 'NONE', ( #11, #195, #175, #44 ) ) ;
#82 = DIRECTION ( 'NONE',  ( 1.000000000000000000, 0.0000000000000000000, 0.0000000000000000000 ) ) ;
#83 = FILL_AREA_STYLE ('',( #36 ) ) ;
#84 = ORIENTED_EDGE ( 'NONE', *, *, #145, .T. ) ;
#85 = AXIS2_PLACEMENT_3D ( 'NONE', #21, #139, #197 ) ;
#86 = DIRECTION ( 'NONE',  ( 1.000000000000000000, 0.0000000000000000000, 0.0000000000000000000 ) ) ;
#87 = DIRECTION ( 'NONE',  ( 1.000000000000000000, 0.0000000000000000000, 0.0000000000000000000 ) ) ;
#88 = DIRECTION ( 'NONE',  ( -1.000000000000000000, -0.0000000000000000000, -0.0000000000000000000 ) ) ;
#89 = ORIENTED_EDGE ( 'NONE', *, *, #16, .T. ) ;
#90 = DIRECTION ( 'NONE',  ( 1.000000000000000000, 0.0000000000000000000, 0.0000000000000000000 ) ) ;
#91 = CARTESIAN_POINT ( 'NONE',  ( 0.0000000000000000000, 0.0000000000000000000, 0.0000000000000000000 ) ) ;
#92 = COLOUR_RGB ( '',0.7529411764705882200, 0.7529411764705882200, 0.7529411764705882200 ) ;
#93 = CARTESIAN_POINT ( 'NONE',  ( 1.600000000000000100, 3.918869757271530500E-016, 3.200000000000000200 ) ) ;
#94 = FACE_BOUND ( 'NONE', #165, .T. ) ;
#95 = ADVANCED_BREP_SHAPE_REPRESENTATION ( '7250716_CNAJF00', ( #75, #18 ), #63 ) ;
#96 = CARTESIAN_POINT ( 'NONE',  ( 0.0000000000000000000, 0.0000000000000000000, -3.200000000000000200 ) ) ;
#97 = MECHANICAL_DESIGN_GEOMETRIC_PRESENTATION_REPRESENTATION (  '', ( #119 ), #180 ) ;
#98 = DIRECTION ( 'NONE',  ( -1.000000000000000000, 0.0000000000000000000, 0.0000000000000000000 ) ) ;
#99 = AXIS2_PLACEMENT_3D ( 'NONE', #206, #87, #174 ) ;
#100 = DIRECTION ( 'NONE',  ( 0.0000000000000000000, 0.0000000000000000000, 1.000000000000000000 ) ) ;
#101 = CARTESIAN_POINT ( 'NONE',  ( 0.0000000000000000000, 0.0000000000000000000, 0.0000000000000000000 ) ) ;
#102 = AXIS2_PLACEMENT_3D ( 'NONE', #101, #90, #198 ) ;
#103 = EDGE_CURVE ( 'NONE', #154, #39, #172, .T. ) ;
#104 = ORIENTED_EDGE ( 'NONE', *, *, #211, .F. ) ;
#105 =( LENGTH_UNIT ( ) NAMED_UNIT ( * ) SI_UNIT ( .MILLI., .METRE. ) );
#106 = APPLICATION_CONTEXT ( 'automotive_design' ) ;
#107 = FACE_OUTER_BOUND ( 'NONE', #213, .T. ) ;
#108 = LINE ( 'NONE', #3, #124 ) ;
#109 = PRESENTATION_LAYER_ASSIGNMENT (  '', '', ( #119 ) ) ;
#110 = ADVANCED_FACE ( 'NONE', ( #147 ), #140, .F. ) ;
#111 = PRODUCT_DEFINITION_FORMATION_WITH_SPECIFIED_SOURCE ( 'ANY', '', #163, .NOT_KNOWN. ) ;
#112 = ORIENTED_EDGE ( 'NONE', *, *, #158, .F. ) ;
#113 = CARTESIAN_POINT ( 'NONE',  ( 1.600000000000000100, 1.102182119232617900E-015, 9.000000000000001800 ) ) ;
#114 = DIRECTION ( 'NONE',  ( 0.0000000000000000000, 0.0000000000000000000, -1.000000000000000000 ) ) ;
#115 = CARTESIAN_POINT ( 'NONE',  ( 1.600000000000000100, 0.0000000000000000000, -3.200000000000000200 ) ) ;
#116 = DIRECTION ( 'NONE',  ( 0.0000000000000000000, 0.0000000000000000000, -1.000000000000000000 ) ) ;
#117 = PRODUCT_RELATED_PRODUCT_CATEGORY ( 'part', '', ( #163 ) ) ;
#118 = DIRECTION ( 'NONE',  ( 1.000000000000000000, 0.0000000000000000000, 0.0000000000000000000 ) ) ;
#119 = STYLED_ITEM ( 'NONE', ( #7 ), #95 ) ;
#120 = CIRCLE ( 'NONE', #68, 3.200000000000000200 ) ;
#121 = EDGE_LOOP ( 'NONE', ( #178, #160, #40, #19 ) ) ;
#122 = VERTEX_POINT ( 'NONE', #13 ) ;
#123 = CYLINDRICAL_SURFACE ( 'NONE', #80, 9.000000000000001800 ) ;
#124 = VECTOR ( 'NONE', #41, 1000.000000000000000 ) ;
#125 = ORIENTED_EDGE ( 'NONE', *, *, #211, .T. ) ;
#126 = VECTOR ( 'NONE', #151, 1000.000000000000000 ) ;
#127 = ORIENTED_EDGE ( 'NONE', *, *, #58, .F. ) ;
#128 =( NAMED_UNIT ( * ) SI_UNIT ( $, .STERADIAN. ) SOLID_ANGLE_UNIT ( ) );
#129 = EDGE_CURVE ( 'NONE', #56, #149, #193, .T. ) ;
#130 =( GEOMETRIC_REPRESENTATION_CONTEXT ( 3 ) GLOBAL_UNCERTAINTY_ASSIGNED_CONTEXT ( ( #203 ) ) GLOBAL_UNIT_ASSIGNED_CONTEXT ( ( #32, #131, #150 ) ) REPRESENTATION_CONTEXT ( 'NONE', 'WORKASPACE' ) );
#131 =( NAMED_UNIT ( * ) PLANE_ANGLE_UNIT ( ) SI_UNIT ( $, .RADIAN. ) );
#132 = PRODUCT_DEFINITION ( 'UNKNOWN', '', #111, #46 ) ;
#133 = SURFACE_SIDE_STYLE ('',( #189 ) ) ;
#134 = ORIENTED_EDGE ( 'NONE', *, *, #103, .F. ) ;
#135 = EDGE_CURVE ( 'NONE', #56, #66, #142, .T. ) ;
#136 = ORIENTED_EDGE ( 'NONE', *, *, #135, .T. ) ;
#137 = MECHANICAL_DESIGN_GEOMETRIC_PRESENTATION_REPRESENTATION (  '', ( #38 ), #130 ) ;
#138 = CARTESIAN_POINT ( 'NONE',  ( 0.0000000000000000000, 0.0000000000000000000, 0.0000000000000000000 ) ) ;
#139 = DIRECTION ( 'NONE',  ( -1.000000000000000000, -0.0000000000000000000, -0.0000000000000000000 ) ) ;
#140 = CYLINDRICAL_SURFACE ( 'NONE', #42, 3.200000000000000200 ) ;
#141 = EDGE_CURVE ( 'NONE', #43, #39, #62, .T. ) ;
#142 = LINE ( 'NONE', #57, #200 ) ;
#143 =( NAMED_UNIT ( * ) SI_UNIT ( $, .STERADIAN. ) SOLID_ANGLE_UNIT ( ) );
#144 = DIRECTION ( 'NONE',  ( 1.000000000000000000, 0.0000000000000000000, 0.0000000000000000000 ) ) ;
#145 = EDGE_CURVE ( 'NONE', #154, #208, #120, .T. ) ;
#146 = AXIS2_PLACEMENT_3D ( 'NONE', #37, #171, #31 ) ;
#147 = FACE_OUTER_BOUND ( 'NONE', #121, .T. ) ;
#148 = PRESENTATION_STYLE_ASSIGNMENT (( #170 ) ) ;
#149 = VERTEX_POINT ( 'NONE', #184 ) ;
#150 =( NAMED_UNIT ( * ) SI_UNIT ( $, .STERADIAN. ) SOLID_ANGLE_UNIT ( ) );
#151 = DIRECTION ( 'NONE',  ( 1.000000000000000000, 0.0000000000000000000, 0.0000000000000000000 ) ) ;
#152 = DIRECTION ( 'NONE',  ( -1.000000000000000000, -0.0000000000000000000, -0.0000000000000000000 ) ) ;
#153 = EDGE_CURVE ( 'NONE', #208, #43, #108, .T. ) ;
#154 = VERTEX_POINT ( 'NONE', #2 ) ;
#155 = CARTESIAN_POINT ( 'NONE',  ( 1.600000000000000100, 0.0000000000000000000, 0.0000000000000000000 ) ) ;
#156 = DIRECTION ( 'NONE',  ( 0.0000000000000000000, 0.0000000000000000000, -1.000000000000000000 ) ) ;
#157 = FACE_BOUND ( 'NONE', #185, .T. ) ;
#158 = EDGE_CURVE ( 'NONE', #66, #122, #33, .T. ) ;
#159 = AXIS2_PLACEMENT_3D ( 'NONE', #73, #192, #191 ) ;
#160 = ORIENTED_EDGE ( 'NONE', *, *, #145, .F. ) ;
#161 = FILL_AREA_STYLE ('',( #45 ) ) ;
#162 = UNCERTAINTY_MEASURE_WITH_UNIT (LENGTH_MEASURE( 1.000000000000000100E-005 ), #5, 'distance_accuracy_value', 'NONE');
#163 = PRODUCT ( '7250716_CNAJF00', '7250716_CNAJF00', '', ( #52 ) ) ;
#164 = PRESENTATION_LAYER_ASSIGNMENT (  '', '', ( #38 ) ) ;
#165 = EDGE_LOOP ( 'NONE', ( #84, #125 ) ) ;
#166 = CARTESIAN_POINT ( 'NONE',  ( 0.0000000000000000000, 0.0000000000000000000, 0.0000000000000000000 ) ) ;
#167 = CYLINDRICAL_SURFACE ( 'NONE', #99, 9.000000000000001800 ) ;
#168 = CARTESIAN_POINT ( 'NONE',  ( 0.0000000000000000000, 0.0000000000000000000, 0.0000000000000000000 ) ) ;
#169 = AXIS2_PLACEMENT_3D ( 'NONE', #71, #152, #14 ) ;
#170 = SURFACE_STYLE_USAGE ( .BOTH. , #133 ) ;
#171 = DIRECTION ( 'NONE',  ( -1.000000000000000000, 0.0000000000000000000, 0.0000000000000000000 ) ) ;
#172 = LINE ( 'NONE', #96, #126 ) ;
#173 = ORIENTED_EDGE ( 'NONE', *, *, #58, .T. ) ;
#174 = DIRECTION ( 'NONE',  ( 0.0000000000000000000, 0.0000000000000000000, -1.000000000000000000 ) ) ;
#175 = ORIENTED_EDGE ( 'NONE', *, *, #28, .T. ) ;
#176 = FACE_OUTER_BOUND ( 'NONE', #23, .T. ) ;
#177 = CARTESIAN_POINT ( 'NONE',  ( 0.0000000000000000000, 0.0000000000000000000, 0.0000000000000000000 ) ) ;
#178 = ORIENTED_EDGE ( 'NONE', *, *, #153, .F. ) ;
#179 = CARTESIAN_POINT ( 'NONE',  ( 0.0000000000000000000, 1.102182119232617900E-015, 9.000000000000001800 ) ) ;
#180 =( GEOMETRIC_REPRESENTATION_CONTEXT ( 3 ) GLOBAL_UNCERTAINTY_ASSIGNED_CONTEXT ( ( #162 ) ) GLOBAL_UNIT_ASSIGNED_CONTEXT ( ( #5, #26, #143 ) ) REPRESENTATION_CONTEXT ( 'NONE', 'WORKASPACE' ) );
#181 = ADVANCED_FACE ( 'NONE', ( #76 ), #167, .T. ) ;
#182 = DIRECTION ( 'NONE',  ( 1.000000000000000000, 0.0000000000000000000, 0.0000000000000000000 ) ) ;
#183 = ADVANCED_FACE ( 'NONE', ( #157, #107 ), #15, .F. ) ;
#184 = CARTESIAN_POINT ( 'NONE',  ( 0.0000000000000000000, 0.0000000000000000000, -9.000000000000001800 ) ) ;
#185 = EDGE_LOOP ( 'NONE', ( #173, #78 ) ) ;
#186 = DIRECTION ( 'NONE',  ( 0.0000000000000000000, 0.0000000000000000000, -1.000000000000000000 ) ) ;
#187 = PRODUCT_DEFINITION_SHAPE ( 'NONE', 'NONE',  #132 ) ;
#188 = DIRECTION ( 'NONE',  ( -1.000000000000000000, -0.0000000000000000000, -0.0000000000000000000 ) ) ;
#189 = SURFACE_STYLE_FILL_AREA ( #83 ) ;
#190 = CARTESIAN_POINT ( 'NONE',  ( 0.0000000000000000000, 3.918869757271530500E-016, 3.200000000000000200 ) ) ;
#191 = DIRECTION ( 'NONE',  ( 0.0000000000000000000, 0.0000000000000000000, -1.000000000000000000 ) ) ;
#192 = DIRECTION ( 'NONE',  ( -1.000000000000000000, -0.0000000000000000000, -0.0000000000000000000 ) ) ;
#193 = CIRCLE ( 'NONE', #65, 9.000000000000001800 ) ;
#194 = DIRECTION ( 'NONE',  ( 0.0000000000000000000, 0.0000000000000000000, -1.000000000000000000 ) ) ;
#195 = ORIENTED_EDGE ( 'NONE', *, *, #16, .F. ) ;
#196 = VECTOR ( 'NONE', #182, 1000.000000000000000 ) ;
#197 = DIRECTION ( 'NONE',  ( 0.0000000000000000000, 0.0000000000000000000, -1.000000000000000000 ) ) ;
#198 = DIRECTION ( 'NONE',  ( 0.0000000000000000000, 0.0000000000000000000, -1.000000000000000000 ) ) ;
#199 = APPLICATION_PROTOCOL_DEFINITION ( 'draft international standard', 'automotive_design', 1998, #106 ) ;
#200 = VECTOR ( 'NONE', #118, 1000.000000000000000 ) ;
#201 = DIRECTION ( 'NONE',  ( 0.0000000000000000000, 0.0000000000000000000, 1.000000000000000000 ) ) ;
#202 = EDGE_CURVE ( 'NONE', #122, #66, #25, .T. ) ;
#203 = UNCERTAINTY_MEASURE_WITH_UNIT (LENGTH_MEASURE( 1.000000000000000100E-005 ), #32, 'distance_accuracy_value', 'NONE');
#204 = SHAPE_DEFINITION_REPRESENTATION ( #187, #95 ) ;
#205 = CYLINDRICAL_SURFACE ( 'NONE', #9, 3.200000000000000200 ) ;
#206 = CARTESIAN_POINT ( 'NONE',  ( 0.0000000000000000000, 0.0000000000000000000, 0.0000000000000000000 ) ) ;
#207 = DIRECTION ( 'NONE',  ( 0.0000000000000000000, 0.0000000000000000000, -1.000000000000000000 ) ) ;
#208 = VERTEX_POINT ( 'NONE', #190 ) ;
#209 = ORIENTED_EDGE ( 'NONE', *, *, #158, .T. ) ;
#210 = SURFACE_STYLE_USAGE ( .BOTH. , #64 ) ;
#211 = EDGE_CURVE ( 'NONE', #208, #154, #59, .T. ) ;
#212 = AXIS2_PLACEMENT_3D ( 'NONE', #17, #88, #156 ) ;
#213 = EDGE_LOOP ( 'NONE', ( #61, #112 ) ) ;
#214 = ADVANCED_FACE ( 'NONE', ( #74 ), #123, .T. ) ;
ENDSEC;
END-ISO-10303-21;
