ISO-10303-21;
HEADER;
FILE_DESCRIPTION (( 'STEP AP214' ),
    '1' );
FILE_NAME ('6920202',
    '2019-02-01T12:48:54',
    ( '' ),
    ('JUGARD+KÜNSTNER GmbH'),
    'SwSTEP 2.0',
    'SolidWorks 2017',
    '' );
FILE_SCHEMA (( 'AUTOMOTIVE_DESIGN' ));
ENDSEC;

DATA;
#1 = CARTESIAN_POINT ( 'NONE',  ( 500.0000000000000000, -250.0000000000000000, 3.000000000000000000 ) ) ;
#2 = ORIENTED_EDGE ( 'NONE', *, *, #74, .F. ) ;
#3 = VECTOR ( 'NONE', #53, 1000.000000000000000 ) ;
#4 = EDGE_CURVE ( 'NONE', #91, #39, #48, .T. ) ;
#5 = SHAPE_DEFINITION_REPRESENTATION ( #83, #177 ) ;
#6 = ORIENTED_EDGE ( 'NONE', *, *, #74, .T. ) ;
#7 =( NAMED_UNIT ( * ) SI_UNIT ( $, .STERADIAN. ) SOLID_ANGLE_UNIT ( ) );
#8 = DIRECTION ( 'NONE',  ( 0.0000000000000000000, -1.000000000000000000, -0.0000000000000000000 ) ) ;
#9 = CARTESIAN_POINT ( 'NONE',  ( 500.0000000000000000, 250.0000000000000000, 3.000000000000000000 ) ) ;
#10 = EDGE_CURVE ( 'NONE', #105, #198, #76, .T. ) ;
#11 = PRODUCT_DEFINITION_CONTEXT ( 'detailed design', #136, 'design' ) ;
#12 = SURFACE_STYLE_USAGE ( .BOTH. , #13 ) ;
#13 = SURFACE_SIDE_STYLE ('',( #129 ) ) ;
#14 = VECTOR ( 'NONE', #120, 1000.000000000000000 ) ;
#15 = ORIENTED_EDGE ( 'NONE', *, *, #126, .F. ) ;
#16 =( GEOMETRIC_REPRESENTATION_CONTEXT ( 3 ) GLOBAL_UNCERTAINTY_ASSIGNED_CONTEXT ( ( #140 ) ) GLOBAL_UNIT_ASSIGNED_CONTEXT ( ( #56, #162, #7 ) ) REPRESENTATION_CONTEXT ( 'NONE', 'WORKASPACE' ) );
#17 = FACE_OUTER_BOUND ( 'NONE', #23, .T. ) ;
#18 = EDGE_CURVE ( 'NONE', #39, #109, #85, .T. ) ;
#19 = ORIENTED_EDGE ( 'NONE', *, *, #18, .F. ) ;
#20 = VECTOR ( 'NONE', #131, 1000.000000000000000 ) ;
#21 = EDGE_CURVE ( 'NONE', #65, #139, #71, .T. ) ;
#22 = LINE ( 'NONE', #57, #152 ) ;
#23 = EDGE_LOOP ( 'NONE', ( #78, #130, #117, #26 ) ) ;
#24 = DIRECTION ( 'NONE',  ( 0.0000000000000000000, 0.0000000000000000000, 1.000000000000000000 ) ) ;
#25 = DIRECTION ( 'NONE',  ( -1.000000000000000000, -0.0000000000000000000, -0.0000000000000000000 ) ) ;
#26 = ORIENTED_EDGE ( 'NONE', *, *, #10, .T. ) ;
#27 = DIRECTION ( 'NONE',  ( 1.000000000000000000, 0.0000000000000000000, -0.0000000000000000000 ) ) ;
#28 = CARTESIAN_POINT ( 'NONE',  ( -500.0000000000000000, -250.0000000000000000, -7.000000000000000000 ) ) ;
#29 = FACE_OUTER_BOUND ( 'NONE', #170, .T. ) ;
#30 =( LENGTH_UNIT ( ) NAMED_UNIT ( * ) SI_UNIT ( .MILLI., .METRE. ) );
#31 = ORIENTED_EDGE ( 'NONE', *, *, #18, .T. ) ;
#32 = APPLICATION_PROTOCOL_DEFINITION ( 'draft international standard', 'automotive_design', 1998, #60 ) ;
#33 = VECTOR ( 'NONE', #173, 1000.000000000000000 ) ;
#34 = EDGE_CURVE ( 'NONE', #109, #65, #187, .T. ) ;
#35 = UNCERTAINTY_MEASURE_WITH_UNIT (LENGTH_MEASURE( 1.000000000000000100E-005 ), #43, 'distance_accuracy_value', 'NONE');
#36 = MECHANICAL_DESIGN_GEOMETRIC_PRESENTATION_REPRESENTATION (  '', ( #151 ), #97 ) ;
#37 = FACE_OUTER_BOUND ( 'NONE', #98, .T. ) ;
#38 = AXIS2_PLACEMENT_3D ( 'NONE', #163, #181, #44 ) ;
#39 = VERTEX_POINT ( 'NONE', #106 ) ;
#40 = PLANE ( 'NONE',  #149 ) ;
#41 = VECTOR ( 'NONE', #51, 1000.000000000000000 ) ;
#42 = PRODUCT_RELATED_PRODUCT_CATEGORY ( 'part', '', ( #94 ) ) ;
#43 =( LENGTH_UNIT ( ) NAMED_UNIT ( * ) SI_UNIT ( .MILLI., .METRE. ) );
#44 = DIRECTION ( 'NONE',  ( 1.000000000000000000, 0.0000000000000000000, -0.0000000000000000000 ) ) ;
#45 = SURFACE_STYLE_FILL_AREA ( #102 ) ;
#46 = ADVANCED_FACE ( 'NONE', ( #37 ), #127, .F. ) ;
#47 = APPLICATION_PROTOCOL_DEFINITION ( 'draft international standard', 'automotive_design', 1998, #136 ) ;
#48 = LINE ( 'NONE', #64, #3 ) ;
#49 = VECTOR ( 'NONE', #100, 1000.000000000000000 ) ;
#50 = DIRECTION ( 'NONE',  ( 0.0000000000000000000, 0.0000000000000000000, -1.000000000000000000 ) ) ;
#51 = DIRECTION ( 'NONE',  ( -0.0000000000000000000, 1.000000000000000000, 0.0000000000000000000 ) ) ;
#52 = AXIS2_PLACEMENT_3D ( 'NONE', #138, #104, #122 ) ;
#53 = DIRECTION ( 'NONE',  ( 1.000000000000000000, 0.0000000000000000000, -0.0000000000000000000 ) ) ;
#54 = CARTESIAN_POINT ( 'NONE',  ( 500.0000000000000000, -250.0000000000000000, 3.000000000000000000 ) ) ;
#55 = ORIENTED_EDGE ( 'NONE', *, *, #95, .F. ) ;
#56 =( LENGTH_UNIT ( ) NAMED_UNIT ( * ) SI_UNIT ( .MILLI., .METRE. ) );
#57 = CARTESIAN_POINT ( 'NONE',  ( 500.0000000000000000, 250.0000000000000000, 3.000000000000000000 ) ) ;
#58 = PLANE ( 'NONE',  #134 ) ;
#59 = ADVANCED_FACE ( 'NONE', ( #29 ), #69, .F. ) ;
#60 = APPLICATION_CONTEXT ( 'automotive_design' ) ;
#61 = EDGE_LOOP ( 'NONE', ( #79, #15, #80, #185 ) ) ;
#62 = EDGE_CURVE ( 'NONE', #198, #113, #201, .T. ) ;
#63 = LINE ( 'NONE', #132, #186 ) ;
#64 = CARTESIAN_POINT ( 'NONE',  ( -500.0000000000000000, -250.0000000000000000, -7.000000000000000000 ) ) ;
#65 = VERTEX_POINT ( 'NONE', #194 ) ;
#66 = CARTESIAN_POINT ( 'NONE',  ( -500.0000000000000000, -250.0000000000000000, 3.000000000000000000 ) ) ;
#67 = VECTOR ( 'NONE', #156, 1000.000000000000000 ) ;
#68 = MANIFOLD_SOLID_BREP ( 'Importiert1', #153 ) ;
#69 = PLANE ( 'NONE',  #93 ) ;
#70 = DIRECTION ( 'NONE',  ( 0.0000000000000000000, 0.0000000000000000000, 1.000000000000000000 ) ) ;
#71 = LINE ( 'NONE', #114, #33 ) ;
#72 = DIRECTION ( 'NONE',  ( 0.0000000000000000000, -1.000000000000000000, 0.0000000000000000000 ) ) ;
#73 =( NAMED_UNIT ( * ) SI_UNIT ( $, .STERADIAN. ) SOLID_ANGLE_UNIT ( ) );
#74 = EDGE_CURVE ( 'NONE', #39, #198, #77, .T. ) ;
#75 = ORIENTED_EDGE ( 'NONE', *, *, #95, .T. ) ;
#76 = LINE ( 'NONE', #66, #67 ) ;
#77 = LINE ( 'NONE', #135, #137 ) ;
#78 = ORIENTED_EDGE ( 'NONE', *, *, #62, .T. ) ;
#79 = ORIENTED_EDGE ( 'NONE', *, *, #21, .T. ) ;
#80 = ORIENTED_EDGE ( 'NONE', *, *, #154, .F. ) ;
#81 = SURFACE_SIDE_STYLE ('',( #45 ) ) ;
#82 = VECTOR ( 'NONE', #8, 1000.000000000000000 ) ;
#83 = PRODUCT_DEFINITION_SHAPE ( 'NONE', 'NONE',  #110 ) ;
#84 = ADVANCED_FACE ( 'NONE', ( #182 ), #40, .F. ) ;
#85 = LINE ( 'NONE', #143, #41 ) ;
#86 = CARTESIAN_POINT ( 'NONE',  ( -500.0000000000000000, -250.0000000000000000, -7.000000000000000000 ) ) ;
#87 = PLANE ( 'NONE',  #141 ) ;
#88 = EDGE_CURVE ( 'NONE', #139, #105, #167, .T. ) ;
#89 = DIRECTION ( 'NONE',  ( 0.0000000000000000000, 1.000000000000000000, 0.0000000000000000000 ) ) ;
#90 = STYLED_ITEM ( 'NONE', ( #144 ), #68 ) ;
#91 = VERTEX_POINT ( 'NONE', #191 ) ;
#92 = PRODUCT_CONTEXT ( 'NONE', #60, 'mechanical' ) ;
#93 = AXIS2_PLACEMENT_3D ( 'NONE', #28, #70, #27 ) ;
#94 = PRODUCT ( '6920202_CNAJF00', '6920202_CNAJF00', '', ( #92 ) ) ;
#95 = EDGE_CURVE ( 'NONE', #65, #91, #111, .T. ) ;
#96 = ORIENTED_EDGE ( 'NONE', *, *, #21, .F. ) ;
#97 =( GEOMETRIC_REPRESENTATION_CONTEXT ( 3 ) GLOBAL_UNCERTAINTY_ASSIGNED_CONTEXT ( ( #197 ) ) GLOBAL_UNIT_ASSIGNED_CONTEXT ( ( #30, #199, #169 ) ) REPRESENTATION_CONTEXT ( 'NONE', 'WORKASPACE' ) );
#98 = EDGE_LOOP ( 'NONE', ( #103, #175, #96, #75 ) ) ;
#99 = CARTESIAN_POINT ( 'NONE',  ( 500.0000000000000000, 250.0000000000000000, 3.000000000000000000 ) ) ;
#100 = DIRECTION ( 'NONE',  ( 0.0000000000000000000, -1.000000000000000000, -0.0000000000000000000 ) ) ;
#101 = CARTESIAN_POINT ( 'NONE',  ( 500.0000000000000000, 250.0000000000000000, -7.000000000000000000 ) ) ;
#102 = FILL_AREA_STYLE ('',( #188 ) ) ;
#103 = ORIENTED_EDGE ( 'NONE', *, *, #112, .F. ) ;
#104 = DIRECTION ( 'NONE',  ( 0.0000000000000000000, 0.0000000000000000000, 1.000000000000000000 ) ) ;
#105 = VERTEX_POINT ( 'NONE', #119 ) ;
#106 = CARTESIAN_POINT ( 'NONE',  ( 500.0000000000000000, -250.0000000000000000, -7.000000000000000000 ) ) ;
#107 = DIRECTION ( 'NONE',  ( -1.000000000000000000, -0.0000000000000000000, 0.0000000000000000000 ) ) ;
#108 = AXIS2_PLACEMENT_3D ( 'NONE', #178, #142, #50 ) ;
#109 = VERTEX_POINT ( 'NONE', #101 ) ;
#110 = PRODUCT_DEFINITION ( 'UNKNOWN', '', #128, #11 ) ;
#111 = LINE ( 'NONE', #86, #49 ) ;
#112 = EDGE_CURVE ( 'NONE', #105, #91, #184, .T. ) ;
#113 = VERTEX_POINT ( 'NONE', #9 ) ;
#114 = CARTESIAN_POINT ( 'NONE',  ( -500.0000000000000000, 250.0000000000000000, 3.000000000000000000 ) ) ;
#115 = CARTESIAN_POINT ( 'NONE',  ( -500.0000000000000000, 250.0000000000000000, 3.000000000000000000 ) ) ;
#116 = CARTESIAN_POINT ( 'NONE',  ( -500.0000000000000000, -250.0000000000000000, 3.000000000000000000 ) ) ;
#117 = ORIENTED_EDGE ( 'NONE', *, *, #88, .T. ) ;
#118 = PRESENTATION_LAYER_ASSIGNMENT (  '', '', ( #151 ) ) ;
#119 = CARTESIAN_POINT ( 'NONE',  ( -500.0000000000000000, -250.0000000000000000, 3.000000000000000000 ) ) ;
#120 = DIRECTION ( 'NONE',  ( 0.0000000000000000000, 1.000000000000000000, -0.0000000000000000000 ) ) ;
#121 = ADVANCED_FACE ( 'NONE', ( #196 ), #58, .F. ) ;
#122 = DIRECTION ( 'NONE',  ( 1.000000000000000000, 0.0000000000000000000, 0.0000000000000000000 ) ) ;
#123 = EDGE_LOOP ( 'NONE', ( #161, #158, #2, #31 ) ) ;
#124 = ORIENTED_EDGE ( 'NONE', *, *, #10, .F. ) ;
#125 = EDGE_LOOP ( 'NONE', ( #6, #124, #179, #192 ) ) ;
#126 = EDGE_CURVE ( 'NONE', #113, #139, #22, .T. ) ;
#127 = PLANE ( 'NONE',  #108 ) ;
#128 = PRODUCT_DEFINITION_FORMATION_WITH_SPECIFIED_SOURCE ( 'ANY', '', #94, .NOT_KNOWN. ) ;
#129 = SURFACE_STYLE_FILL_AREA ( #171 ) ;
#130 = ORIENTED_EDGE ( 'NONE', *, *, #126, .T. ) ;
#131 = DIRECTION ( 'NONE',  ( 0.0000000000000000000, 0.0000000000000000000, -1.000000000000000000 ) ) ;
#132 = CARTESIAN_POINT ( 'NONE',  ( 500.0000000000000000, 250.0000000000000000, 3.000000000000000000 ) ) ;
#133 = DIRECTION ( 'NONE',  ( 0.0000000000000000000, -0.0000000000000000000, 1.000000000000000000 ) ) ;
#134 = AXIS2_PLACEMENT_3D ( 'NONE', #99, #72, #193 ) ;
#135 = CARTESIAN_POINT ( 'NONE',  ( 500.0000000000000000, -250.0000000000000000, 3.000000000000000000 ) ) ;
#136 = APPLICATION_CONTEXT ( 'automotive_design' ) ;
#137 = VECTOR ( 'NONE', #180, 1000.000000000000000 ) ;
#138 = CARTESIAN_POINT ( 'NONE',  ( 0.0000000000000000000, 0.0000000000000000000, 0.0000000000000000000 ) ) ;
#139 = VERTEX_POINT ( 'NONE', #115 ) ;
#140 = UNCERTAINTY_MEASURE_WITH_UNIT (LENGTH_MEASURE( 1.000000000000000100E-005 ), #56, 'distance_accuracy_value', 'NONE');
#141 = AXIS2_PLACEMENT_3D ( 'NONE', #160, #89, #133 ) ;
#142 = DIRECTION ( 'NONE',  ( 1.000000000000000000, 0.0000000000000000000, 0.0000000000000000000 ) ) ;
#143 = CARTESIAN_POINT ( 'NONE',  ( 500.0000000000000000, -250.0000000000000000, -7.000000000000000000 ) ) ;
#144 = PRESENTATION_STYLE_ASSIGNMENT (( #159 ) ) ;
#145 = PLANE ( 'NONE',  #38 ) ;
#146 = DIRECTION ( 'NONE',  ( -1.000000000000000000, 0.0000000000000000000, 0.0000000000000000000 ) ) ;
#147 = FILL_AREA_STYLE_COLOUR ( '', #172 ) ;
#148 = COLOUR_RGB ( '',1.000000000000000000, 1.000000000000000000, 1.000000000000000000 ) ;
#149 = AXIS2_PLACEMENT_3D ( 'NONE', #54, #146, #24 ) ;
#150 = VECTOR ( 'NONE', #107, 1000.000000000000000 ) ;
#151 = STYLED_ITEM ( 'NONE', ( #174 ), #177 ) ;
#152 = VECTOR ( 'NONE', #25, 1000.000000000000000 ) ;
#153 = CLOSED_SHELL ( 'NONE', ( #59, #46, #121, #84, #183, #164 ) ) ;
#154 = EDGE_CURVE ( 'NONE', #109, #113, #63, .T. ) ;
#155 = CARTESIAN_POINT ( 'NONE',  ( -500.0000000000000000, 250.0000000000000000, -7.000000000000000000 ) ) ;
#156 = DIRECTION ( 'NONE',  ( 1.000000000000000000, 0.0000000000000000000, -0.0000000000000000000 ) ) ;
#157 = ORIENTED_EDGE ( 'NONE', *, *, #34, .F. ) ;
#158 = ORIENTED_EDGE ( 'NONE', *, *, #62, .F. ) ;
#159 = SURFACE_STYLE_USAGE ( .BOTH. , #81 ) ;
#160 = CARTESIAN_POINT ( 'NONE',  ( -500.0000000000000000, -250.0000000000000000, 3.000000000000000000 ) ) ;
#161 = ORIENTED_EDGE ( 'NONE', *, *, #154, .T. ) ;
#162 =( NAMED_UNIT ( * ) PLANE_ANGLE_UNIT ( ) SI_UNIT ( $, .RADIAN. ) );
#163 = CARTESIAN_POINT ( 'NONE',  ( -500.0000000000000000, -250.0000000000000000, 3.000000000000000000 ) ) ;
#164 = ADVANCED_FACE ( 'NONE', ( #17 ), #145, .T. ) ;
#165 = DIRECTION ( 'NONE',  ( -0.0000000000000000000, 0.0000000000000000000, 1.000000000000000000 ) ) ;
#166 = PRESENTATION_LAYER_ASSIGNMENT (  '', '', ( #90 ) ) ;
#167 = LINE ( 'NONE', #190, #82 ) ;
#168 =( NAMED_UNIT ( * ) PLANE_ANGLE_UNIT ( ) SI_UNIT ( $, .RADIAN. ) );
#169 =( NAMED_UNIT ( * ) SI_UNIT ( $, .STERADIAN. ) SOLID_ANGLE_UNIT ( ) );
#170 = EDGE_LOOP ( 'NONE', ( #157, #19, #202, #55 ) ) ;
#171 = FILL_AREA_STYLE ('',( #147 ) ) ;
#172 = COLOUR_RGB ( '',0.7529411764705882200, 0.7529411764705882200, 0.7529411764705882200 ) ;
#173 = DIRECTION ( 'NONE',  ( -0.0000000000000000000, -0.0000000000000000000, 1.000000000000000000 ) ) ;
#174 = PRESENTATION_STYLE_ASSIGNMENT (( #12 ) ) ;
#175 = ORIENTED_EDGE ( 'NONE', *, *, #88, .F. ) ;
#176 = FACE_OUTER_BOUND ( 'NONE', #125, .T. ) ;
#177 = ADVANCED_BREP_SHAPE_REPRESENTATION ( '6920202_CNAJF00', ( #68, #52 ), #200 ) ;
#178 = CARTESIAN_POINT ( 'NONE',  ( -500.0000000000000000, 250.0000000000000000, 3.000000000000000000 ) ) ;
#179 = ORIENTED_EDGE ( 'NONE', *, *, #112, .T. ) ;
#180 = DIRECTION ( 'NONE',  ( 0.0000000000000000000, 0.0000000000000000000, 1.000000000000000000 ) ) ;
#181 = DIRECTION ( 'NONE',  ( 0.0000000000000000000, 0.0000000000000000000, 1.000000000000000000 ) ) ;
#182 = FACE_OUTER_BOUND ( 'NONE', #123, .T. ) ;
#183 = ADVANCED_FACE ( 'NONE', ( #176 ), #87, .F. ) ;
#184 = LINE ( 'NONE', #116, #20 ) ;
#185 = ORIENTED_EDGE ( 'NONE', *, *, #34, .T. ) ;
#186 = VECTOR ( 'NONE', #165, 1000.000000000000000 ) ;
#187 = LINE ( 'NONE', #155, #150 ) ;
#188 = FILL_AREA_STYLE_COLOUR ( '', #148 ) ;
#189 = MECHANICAL_DESIGN_GEOMETRIC_PRESENTATION_REPRESENTATION (  '', ( #90 ), #16 ) ;
#190 = CARTESIAN_POINT ( 'NONE',  ( -500.0000000000000000, 250.0000000000000000, 3.000000000000000000 ) ) ;
#191 = CARTESIAN_POINT ( 'NONE',  ( -500.0000000000000000, -250.0000000000000000, -7.000000000000000000 ) ) ;
#192 = ORIENTED_EDGE ( 'NONE', *, *, #4, .T. ) ;
#193 = DIRECTION ( 'NONE',  ( 0.0000000000000000000, -0.0000000000000000000, -1.000000000000000000 ) ) ;
#194 = CARTESIAN_POINT ( 'NONE',  ( -500.0000000000000000, 250.0000000000000000, -7.000000000000000000 ) ) ;
#195 = CARTESIAN_POINT ( 'NONE',  ( 500.0000000000000000, -250.0000000000000000, 3.000000000000000000 ) ) ;
#196 = FACE_OUTER_BOUND ( 'NONE', #61, .T. ) ;
#197 = UNCERTAINTY_MEASURE_WITH_UNIT (LENGTH_MEASURE( 1.000000000000000100E-005 ), #30, 'distance_accuracy_value', 'NONE');
#198 = VERTEX_POINT ( 'NONE', #195 ) ;
#199 =( NAMED_UNIT ( * ) PLANE_ANGLE_UNIT ( ) SI_UNIT ( $, .RADIAN. ) );
#200 =( GEOMETRIC_REPRESENTATION_CONTEXT ( 3 ) GLOBAL_UNCERTAINTY_ASSIGNED_CONTEXT ( ( #35 ) ) GLOBAL_UNIT_ASSIGNED_CONTEXT ( ( #43, #168, #73 ) ) REPRESENTATION_CONTEXT ( 'NONE', 'WORKASPACE' ) );
#201 = LINE ( 'NONE', #1, #14 ) ;
#202 = ORIENTED_EDGE ( 'NONE', *, *, #4, .F. ) ;
ENDSEC;
END-ISO-10303-21;
