ISO-10303-21;
HEADER;
FILE_DESCRIPTION (( 'STEP AP214' ),
    '1' );
FILE_NAME ('6530016',
    '2019-01-31T12:11:17',
    ( '' ),
    ('JUGARD+KÜNSTNER GmbH'),
    'SwSTEP 2.0',
    'SolidWorks 2017',
    '' );
FILE_SCHEMA (( 'AUTOMOTIVE_DESIGN' ));
ENDSEC;

DATA;
#1 = CARTESIAN_POINT ( 'NONE',  ( -36.70000000000000300, -60.00000000000000000, -60.00000000000000000 ) ) ;
#2 = EDGE_CURVE ( 'NONE', #99, #26, #64, .T. ) ;
#3 = FACE_OUTER_BOUND ( 'NONE', #35, .T. ) ;
#4 = CARTESIAN_POINT ( 'NONE',  ( -5.065392549852272000E-015, -55.02999999999999400, -60.00000000000000000 ) ) ;
#5 =( NAMED_UNIT ( * ) SI_UNIT ( $, .STERADIAN. ) SOLID_ANGLE_UNIT ( ) );
#6 = CARTESIAN_POINT ( 'NONE',  ( 825.0000000000001100, 53.00000000000000000, -60.00000000000000000 ) ) ;
#7 = ADVANCED_FACE ( 'NONE', ( #49 ), #324, .T. ) ;
#8 = FACE_BOUND ( 'NONE', #144, .T. ) ;
#9 = CARTESIAN_POINT ( 'NONE',  ( 825.0000000000001100, 53.00000000000000000, -60.00000000000000000 ) ) ;
#10 = VERTEX_POINT ( 'NONE', #216 ) ;
#11 = EDGE_CURVE ( 'NONE', #99, #164, #127, .T. ) ;
#12 =( LENGTH_UNIT ( ) NAMED_UNIT ( * ) SI_UNIT ( .MILLI., .METRE. ) );
#13 = PLANE ( 'NONE',  #223 ) ;
#14 = ORIENTED_EDGE ( 'NONE', *, *, #158, .T. ) ;
#15 = CARTESIAN_POINT ( 'NONE',  ( -36.70000000000000300, 60.00000000000000000, -60.00000000000000000 ) ) ;
#16 = APPLICATION_PROTOCOL_DEFINITION ( 'draft international standard', 'automotive_design', 1998, #46 ) ;
#17 = DIRECTION ( 'NONE',  ( 0.0000000000000000000, 0.0000000000000000000, 1.000000000000000000 ) ) ;
#18 = LINE ( 'NONE', #196, #231 ) ;
#19 = ORIENTED_EDGE ( 'NONE', *, *, #83, .T. ) ;
#20 = EDGE_CURVE ( 'NONE', #327, #138, #107, .T. ) ;
#21 = AXIS2_PLACEMENT_3D ( 'NONE', #230, #39, #94 ) ;
#22 = COLOUR_RGB ( '',0.7529411764705882200, 0.7529411764705882200, 0.7529411764705882200 ) ;
#23 = LINE ( 'NONE', #206, #47 ) ;
#24 = ORIENTED_EDGE ( 'NONE', *, *, #88, .F. ) ;
#25 = SHAPE_DEFINITION_REPRESENTATION ( #181, #287 ) ;
#26 = VERTEX_POINT ( 'NONE', #248 ) ;
#27 = VERTEX_POINT ( 'NONE', #145 ) ;
#28 = DIRECTION ( 'NONE',  ( -0.0000000000000000000, 1.000000000000000000, 0.0000000000000000000 ) ) ;
#29 = EDGE_CURVE ( 'NONE', #243, #138, #266, .T. ) ;
#30 = LINE ( 'NONE', #97, #341 ) ;
#31 = ORIENTED_EDGE ( 'NONE', *, *, #285, .F. ) ;
#32 = DIRECTION ( 'NONE',  ( 1.000000000000000000, 0.0000000000000000000, 0.0000000000000000000 ) ) ;
#33 = CARTESIAN_POINT ( 'NONE',  ( 861.7000000000000500, -60.00000000000000000, 0.0000000000000000000 ) ) ;
#34 = DIRECTION ( 'NONE',  ( 1.000000000000000000, 0.0000000000000000000, 0.0000000000000000000 ) ) ;
#35 = EDGE_LOOP ( 'NONE', ( #103, #342, #137, #116 ) ) ;
#36 = ORIENTED_EDGE ( 'NONE', *, *, #29, .T. ) ;
#37 = PLANE ( 'NONE',  #21 ) ;
#38 = PLANE ( 'NONE',  #157 ) ;
#39 = DIRECTION ( 'NONE',  ( 0.0000000000000000000, 0.0000000000000000000, 1.000000000000000000 ) ) ;
#40 = VECTOR ( 'NONE', #309, 1000.000000000000000 ) ;
#41 =( NAMED_UNIT ( * ) PLANE_ANGLE_UNIT ( ) SI_UNIT ( $, .RADIAN. ) );
#42 = ORIENTED_EDGE ( 'NONE', *, *, #2, .T. ) ;
#43 = DIRECTION ( 'NONE',  ( 1.000000000000000000, 0.0000000000000000000, 0.0000000000000000000 ) ) ;
#44 = EDGE_CURVE ( 'NONE', #27, #26, #302, .T. ) ;
#45 = CARTESIAN_POINT ( 'NONE',  ( 861.7000000000000500, 60.00000000000000000, -30.00000000000000000 ) ) ;
#46 = APPLICATION_CONTEXT ( 'automotive_design' ) ;
#47 = VECTOR ( 'NONE', #150, 1000.000000000000000 ) ;
#48 = ORIENTED_EDGE ( 'NONE', *, *, #20, .T. ) ;
#49 = FACE_OUTER_BOUND ( 'NONE', #346, .T. ) ;
#50 = SURFACE_STYLE_USAGE ( .BOTH. , #237 ) ;
#51 = VERTEX_POINT ( 'NONE', #86 ) ;
#52 = EDGE_CURVE ( 'NONE', #327, #51, #214, .T. ) ;
#53 = LINE ( 'NONE', #45, #271 ) ;
#54 = VECTOR ( 'NONE', #351, 1000.000000000000000 ) ;
#55 = DIRECTION ( 'NONE',  ( -1.000000000000000000, -0.0000000000000000000, -0.0000000000000000000 ) ) ;
#56 = STYLED_ITEM ( 'NONE', ( #163 ), #170 ) ;
#57 = CARTESIAN_POINT ( 'NONE',  ( -4.440892098500619900E-015, -55.03000000000000100, -48.00000000000000000 ) ) ;
#58 = CARTESIAN_POINT ( 'NONE',  ( -36.70000000000000300, -60.00000000000000000, 0.0000000000000000000 ) ) ;
#59 = CARTESIAN_POINT ( 'NONE',  ( -4.440892098500619900E-015, 0.0000000000000000000, -30.00000000000000000 ) ) ;
#60 = ADVANCED_FACE ( 'NONE', ( #3 ), #333, .T. ) ;
#61 = DIRECTION ( 'NONE',  ( 0.0000000000000000000, 1.000000000000000000, 0.0000000000000000000 ) ) ;
#62 = EDGE_CURVE ( 'NONE', #200, #250, #335, .T. ) ;
#63 = VECTOR ( 'NONE', #176, 1000.000000000000000 ) ;
#64 = LINE ( 'NONE', #270, #54 ) ;
#65 =( LENGTH_UNIT ( ) NAMED_UNIT ( * ) SI_UNIT ( .MILLI., .METRE. ) );
#66 = ORIENTED_EDGE ( 'NONE', *, *, #313, .T. ) ;
#67 = DIRECTION ( 'NONE',  ( -0.0000000000000000000, 0.0000000000000000000, 1.000000000000000000 ) ) ;
#68 = ADVANCED_FACE ( 'NONE', ( #169 ), #279, .T. ) ;
#69 = DIRECTION ( 'NONE',  ( -0.0000000000000000000, -0.0000000000000000000, 1.000000000000000000 ) ) ;
#70 = STYLED_ITEM ( 'NONE', ( #359 ), #287 ) ;
#71 = CARTESIAN_POINT ( 'NONE',  ( -36.70000000000000300, 53.00000000000000000, -60.00000000000000000 ) ) ;
#72 = CARTESIAN_POINT ( 'NONE',  ( -6.938893903907228400E-015, 60.00000000000000000, -60.00000000000000000 ) ) ;
#73 = DIRECTION ( 'NONE',  ( 1.000000000000000000, 0.0000000000000000000, -0.0000000000000000000 ) ) ;
#74 = PRESENTATION_STYLE_ASSIGNMENT (( #111 ) ) ;
#75 = VERTEX_POINT ( 'NONE', #4 ) ;
#76 = CARTESIAN_POINT ( 'NONE',  ( -36.70000000000000300, 0.0000000000000000000, -30.00000000000000000 ) ) ;
#77 = DIRECTION ( 'NONE',  ( 0.0000000000000000000, 0.0000000000000000000, -1.000000000000000000 ) ) ;
#78 = SURFACE_STYLE_FILL_AREA ( #277 ) ;
#79 = AXIS2_PLACEMENT_3D ( 'NONE', #357, #146, #336 ) ;
#80 = ORIENTED_EDGE ( 'NONE', *, *, #44, .T. ) ;
#81 = PRESENTATION_LAYER_ASSIGNMENT (  '', '', ( #70 ) ) ;
#82 = ORIENTED_EDGE ( 'NONE', *, *, #242, .T. ) ;
#83 = EDGE_CURVE ( 'NONE', #75, #27, #311, .T. ) ;
#84 = CARTESIAN_POINT ( 'NONE',  ( -4.440892098500619900E-015, 53.00000000000000000, -59.00000000000000700 ) ) ;
#85 = ORIENTED_EDGE ( 'NONE', *, *, #260, .T. ) ;
#86 = CARTESIAN_POINT ( 'NONE',  ( 861.7000000000000500, 60.00000000000000000, 3.816391647148975600E-014 ) ) ;
#87 = DIRECTION ( 'NONE',  ( 1.000000000000000000, 0.0000000000000000000, 0.0000000000000000000 ) ) ;
#88 = EDGE_CURVE ( 'NONE', #75, #200, #18, .T. ) ;
#89 = DIRECTION ( 'NONE',  ( -1.000000000000000000, 0.0000000000000000000, -0.0000000000000000000 ) ) ;
#90 = VERTEX_POINT ( 'NONE', #247 ) ;
#91 = PLANE ( 'NONE',  #114 ) ;
#92 = DIRECTION ( 'NONE',  ( 1.000000000000000000, 0.0000000000000000000, 0.0000000000000000000 ) ) ;
#93 = DIRECTION ( 'NONE',  ( 0.0000000000000000000, -1.000000000000000000, -0.0000000000000000000 ) ) ;
#94 = DIRECTION ( 'NONE',  ( 1.000000000000000000, 0.0000000000000000000, -0.0000000000000000000 ) ) ;
#95 = EDGE_LOOP ( 'NONE', ( #156, #245, #353, #159 ) ) ;
#96 = PRESENTATION_LAYER_ASSIGNMENT (  '', '', ( #56 ) ) ;
#97 = CARTESIAN_POINT ( 'NONE',  ( -36.70000000000000300, -60.00000000000000000, 0.0000000000000000000 ) ) ;
#98 =( GEOMETRIC_REPRESENTATION_CONTEXT ( 3 ) GLOBAL_UNCERTAINTY_ASSIGNED_CONTEXT ( ( #239 ) ) GLOBAL_UNIT_ASSIGNED_CONTEXT ( ( #345, #319, #208 ) ) REPRESENTATION_CONTEXT ( 'NONE', 'WORKASPACE' ) );
#99 = VERTEX_POINT ( 'NONE', #252 ) ;
#100 = DIRECTION ( 'NONE',  ( 1.000000000000000000, 0.0000000000000000000, 0.0000000000000000000 ) ) ;
#101 = DIRECTION ( 'NONE',  ( 0.0000000000000000000, -0.0000000000000000000, 1.000000000000000000 ) ) ;
#102 = ORIENTED_EDGE ( 'NONE', *, *, #246, .T. ) ;
#103 = ORIENTED_EDGE ( 'NONE', *, *, #303, .T. ) ;
#104 = CARTESIAN_POINT ( 'NONE',  ( 861.7000000000000500, -60.00000000000000000, 1.144917494144692700E-013 ) ) ;
#105 = FACE_OUTER_BOUND ( 'NONE', #267, .T. ) ;
#106 = ORIENTED_EDGE ( 'NONE', *, *, #83, .F. ) ;
#107 = LINE ( 'NONE', #134, #320 ) ;
#108 = MECHANICAL_DESIGN_GEOMETRIC_PRESENTATION_REPRESENTATION (  '', ( #56 ), #221 ) ;
#109 = DIRECTION ( 'NONE',  ( 0.0000000000000000000, 0.0000000000000000000, -1.000000000000000000 ) ) ;
#110 = CARTESIAN_POINT ( 'NONE',  ( -4.440892098500619900E-015, -55.03000000000000100, -59.00000000000000700 ) ) ;
#111 = SURFACE_STYLE_USAGE ( .BOTH. , #227 ) ;
#112 = FILL_AREA_STYLE_COLOUR ( '', #139 ) ;
#113 = ADVANCED_FACE ( 'NONE', ( #160 ), #91, .T. ) ;
#114 = AXIS2_PLACEMENT_3D ( 'NONE', #59, #87, #165 ) ;
#115 = VECTOR ( 'NONE', #149, 1000.000000000000000 ) ;
#116 = ORIENTED_EDGE ( 'NONE', *, *, #192, .T. ) ;
#117 = EDGE_LOOP ( 'NONE', ( #295, #42, #272, #299 ) ) ;
#118 = CARTESIAN_POINT ( 'NONE',  ( -36.70000000000000300, -60.00000000000000000, -60.00000000000000000 ) ) ;
#119 = PRODUCT_DEFINITION_CONTEXT ( 'detailed design', #46, 'design' ) ;
#120 = CARTESIAN_POINT ( 'NONE',  ( -36.70000000000000300, 60.00000000000000000, -60.00000000000000000 ) ) ;
#121 = CARTESIAN_POINT ( 'NONE',  ( 825.0000000000001100, -55.02999999999999400, -60.00000000000000000 ) ) ;
#122 = VECTOR ( 'NONE', #261, 1000.000000000000000 ) ;
#123 = DIRECTION ( 'NONE',  ( -1.000000000000000000, -0.0000000000000000000, -0.0000000000000000000 ) ) ;
#124 = ORIENTED_EDGE ( 'NONE', *, *, #242, .F. ) ;
#125 = STYLED_ITEM ( 'NONE', ( #74 ), #148 ) ;
#126 = VECTOR ( 'NONE', #73, 1000.000000000000000 ) ;
#127 = LINE ( 'NONE', #84, #180 ) ;
#128 = CLOSED_SHELL ( 'NONE', ( #60, #283, #278, #340, #308, #147, #68, #113, #7, #167, #170 ) ) ;
#129 =( NAMED_UNIT ( * ) PLANE_ANGLE_UNIT ( ) SI_UNIT ( $, .RADIAN. ) );
#130 = AXIS2_PLACEMENT_3D ( 'NONE', #317, #154, #101 ) ;
#131 = AXIS2_PLACEMENT_3D ( 'NONE', #58, #220, #198 ) ;
#132 = VECTOR ( 'NONE', #67, 1000.000000000000000 ) ;
#133 = ORIENTED_EDGE ( 'NONE', *, *, #235, .T. ) ;
#134 = CARTESIAN_POINT ( 'NONE',  ( 861.7000000000000500, -60.00000000000000000, -30.00000000000000000 ) ) ;
#135 = LINE ( 'NONE', #310, #63 ) ;
#136 = PRESENTATION_LAYER_ASSIGNMENT (  '', '', ( #125 ) ) ;
#137 = ORIENTED_EDGE ( 'NONE', *, *, #284, .T. ) ;
#138 = VERTEX_POINT ( 'NONE', #332 ) ;
#139 = COLOUR_RGB ( '',0.8745098039215686300, 0.9137254901960784000, 1.000000000000000000 ) ;
#140 = EDGE_LOOP ( 'NONE', ( #282, #48, #82, #66 ) ) ;
#141 = PLANE ( 'NONE',  #79 ) ;
#142 = CARTESIAN_POINT ( 'NONE',  ( 825.0000000000001100, 60.00000000000000000, -60.00000000000000000 ) ) ;
#143 = VECTOR ( 'NONE', #69, 1000.000000000000000 ) ;
#144 = EDGE_LOOP ( 'NONE', ( #133, #189, #232, #161 ) ) ;
#145 = CARTESIAN_POINT ( 'NONE',  ( -2.220446049250309900E-015, -55.03000000000000100, -59.00000000000000700 ) ) ;
#146 = DIRECTION ( 'NONE',  ( 1.000000000000000000, 0.0000000000000000000, 0.0000000000000000000 ) ) ;
#147 = ADVANCED_FACE ( 'NONE', ( #8, #297 ), #328, .T. ) ;
#148 = MANIFOLD_SOLID_BREP ( 'Importiert1', #128 ) ;
#149 = DIRECTION ( 'NONE',  ( -1.000000000000000000, -0.0000000000000000000, 0.0000000000000000000 ) ) ;
#150 = DIRECTION ( 'NONE',  ( -0.0000000000000000000, 1.000000000000000000, 0.0000000000000000000 ) ) ;
#151 = ORIENTED_EDGE ( 'NONE', *, *, #20, .F. ) ;
#152 = ORIENTED_EDGE ( 'NONE', *, *, #284, .F. ) ;
#153 = MECHANICAL_DESIGN_GEOMETRIC_PRESENTATION_REPRESENTATION (  '', ( #125 ), #188 ) ;
#154 = DIRECTION ( 'NONE',  ( -0.0000000000000000000, 1.000000000000000000, 0.0000000000000000000 ) ) ;
#155 = DIRECTION ( 'NONE',  ( -0.0000000000000000000, -0.0000000000000000000, 1.000000000000000000 ) ) ;
#156 = ORIENTED_EDGE ( 'NONE', *, *, #229, .F. ) ;
#157 = AXIS2_PLACEMENT_3D ( 'NONE', #258, #171, #263 ) ;
#158 = EDGE_CURVE ( 'NONE', #26, #200, #294, .T. ) ;
#159 = ORIENTED_EDGE ( 'NONE', *, *, #268, .F. ) ;
#160 = FACE_OUTER_BOUND ( 'NONE', #262, .T. ) ;
#161 = ORIENTED_EDGE ( 'NONE', *, *, #212, .T. ) ;
#162 = CARTESIAN_POINT ( 'NONE',  ( 825.0000000000001100, -55.03000000000000100, -48.00000000000000000 ) ) ;
#163 = PRESENTATION_STYLE_ASSIGNMENT (( #203 ) ) ;
#164 = VERTEX_POINT ( 'NONE', #304 ) ;
#165 = DIRECTION ( 'NONE',  ( 0.0000000000000000000, 0.0000000000000000000, -1.000000000000000000 ) ) ;
#166 = AXIS2_PLACEMENT_3D ( 'NONE', #57, #28, #226 ) ;
#167 = ADVANCED_FACE ( 'NONE', ( #105 ), #141, .F. ) ;
#168 = CARTESIAN_POINT ( 'NONE',  ( -36.70000000000000300, 60.00000000000000000, 0.0000000000000000000 ) ) ;
#169 = FACE_OUTER_BOUND ( 'NONE', #356, .T. ) ;
#170 = ADVANCED_FACE ( 'NONE', ( #329 ), #37, .F. ) ;
#171 = DIRECTION ( 'NONE',  ( 0.0000000000000000000, -1.000000000000000000, 0.0000000000000000000 ) ) ;
#172 = PLANE ( 'NONE',  #275 ) ;
#173 = LINE ( 'NONE', #120, #234 ) ;
#174 = EDGE_LOOP ( 'NONE', ( #289, #124, #225, #215 ) ) ;
#175 = EDGE_CURVE ( 'NONE', #250, #99, #205, .T. ) ;
#176 = DIRECTION ( 'NONE',  ( -0.0000000000000000000, -0.0000000000000000000, 1.000000000000000000 ) ) ;
#177 = PLANE ( 'NONE',  #130 ) ;
#178 = CARTESIAN_POINT ( 'NONE',  ( -36.70000000000000300, -60.00000000000000000, 0.0000000000000000000 ) ) ;
#179 = APPLICATION_PROTOCOL_DEFINITION ( 'draft international standard', 'automotive_design', 1998, #183 ) ;
#180 = VECTOR ( 'NONE', #55, 1000.000000000000000 ) ;
#181 = PRODUCT_DEFINITION_SHAPE ( 'NONE', 'NONE',  #343 ) ;
#182 = ORIENTED_EDGE ( 'NONE', *, *, #285, .T. ) ;
#183 = APPLICATION_CONTEXT ( 'automotive_design' ) ;
#184 = SURFACE_STYLE_FILL_AREA ( #292 ) ;
#185 = SURFACE_STYLE_FILL_AREA ( #259 ) ;
#186 = ORIENTED_EDGE ( 'NONE', *, *, #313, .F. ) ;
#187 = CARTESIAN_POINT ( 'NONE',  ( -4.440892098500619900E-015, 53.00000000000000000, -60.00000000000000000 ) ) ;
#188 =( GEOMETRIC_REPRESENTATION_CONTEXT ( 3 ) GLOBAL_UNCERTAINTY_ASSIGNED_CONTEXT ( ( #293 ) ) GLOBAL_UNIT_ASSIGNED_CONTEXT ( ( #65, #195, #253 ) ) REPRESENTATION_CONTEXT ( 'NONE', 'WORKASPACE' ) );
#189 = ORIENTED_EDGE ( 'NONE', *, *, #88, .T. ) ;
#190 = ORIENTED_EDGE ( 'NONE', *, *, #235, .F. ) ;
#191 = DIRECTION ( 'NONE',  ( 0.0000000000000000000, -1.000000000000000000, 0.0000000000000000000 ) ) ;
#192 = EDGE_CURVE ( 'NONE', #269, #10, #30, .T. ) ;
#193 = DIRECTION ( 'NONE',  ( -0.0000000000000000000, 1.000000000000000000, 0.0000000000000000000 ) ) ;
#194 = VECTOR ( 'NONE', #93, 1000.000000000000000 ) ;
#195 =( NAMED_UNIT ( * ) PLANE_ANGLE_UNIT ( ) SI_UNIT ( $, .RADIAN. ) );
#196 = CARTESIAN_POINT ( 'NONE',  ( -36.70000000000000300, -55.02999999999999400, -60.00000000000000000 ) ) ;
#197 = EDGE_CURVE ( 'NONE', #164, #27, #350, .T. ) ;
#198 = DIRECTION ( 'NONE',  ( 1.000000000000000000, 0.0000000000000000000, -0.0000000000000000000 ) ) ;
#199 = LINE ( 'NONE', #178, #126 ) ;
#200 = VERTEX_POINT ( 'NONE', #121 ) ;
#201 = CARTESIAN_POINT ( 'NONE',  ( 861.7000000000000500, -2.309263891220330100E-013, -60.00000000000000000 ) ) ;
#202 = CARTESIAN_POINT ( 'NONE',  ( 861.7000000000000500, -2.309263891220330100E-013, -30.00000000000000000 ) ) ;
#203 = SURFACE_STYLE_USAGE ( .BOTH. , #256 ) ;
#204 = FACE_OUTER_BOUND ( 'NONE', #95, .T. ) ;
#205 = LINE ( 'NONE', #9, #132 ) ;
#206 = CARTESIAN_POINT ( 'NONE',  ( -36.70000000000000300, 0.0000000000000000000, -60.00000000000000000 ) ) ;
#207 = CARTESIAN_POINT ( 'NONE',  ( -36.70000000000000300, 60.00000000000000000, -30.00000000000000000 ) ) ;
#208 =( NAMED_UNIT ( * ) SI_UNIT ( $, .STERADIAN. ) SOLID_ANGLE_UNIT ( ) );
#209 = ORIENTED_EDGE ( 'NONE', *, *, #175, .F. ) ;
#210 = ORIENTED_EDGE ( 'NONE', *, *, #11, .T. ) ;
#211 = PRODUCT_CONTEXT ( 'NONE', #183, 'mechanical' ) ;
#212 = EDGE_CURVE ( 'NONE', #250, #90, #322, .T. ) ;
#213 = VECTOR ( 'NONE', #233, 1000.000000000000000 ) ;
#214 = LINE ( 'NONE', #33, #323 ) ;
#215 = ORIENTED_EDGE ( 'NONE', *, *, #229, .T. ) ;
#216 = CARTESIAN_POINT ( 'NONE',  ( -36.70000000000000300, -60.00000000000000000, 3.816391647148975600E-014 ) ) ;
#217 = MECHANICAL_DESIGN_GEOMETRIC_PRESENTATION_REPRESENTATION (  '', ( #70 ), #98 ) ;
#218 = COLOUR_RGB ( '',0.8000000000000000400, 0.8000000000000000400, 0.8000000000000000400 ) ;
#219 = UNCERTAINTY_MEASURE_WITH_UNIT (LENGTH_MEASURE( 1.000000000000000100E-005 ), #12, 'distance_accuracy_value', 'NONE');
#220 = DIRECTION ( 'NONE',  ( 0.0000000000000000000, 0.0000000000000000000, 1.000000000000000000 ) ) ;
#221 =( GEOMETRIC_REPRESENTATION_CONTEXT ( 3 ) GLOBAL_UNCERTAINTY_ASSIGNED_CONTEXT ( ( #219 ) ) GLOBAL_UNIT_ASSIGNED_CONTEXT ( ( #12, #41, #5 ) ) REPRESENTATION_CONTEXT ( 'NONE', 'WORKASPACE' ) );
#222 = DIRECTION ( 'NONE',  ( 0.0000000000000000000, -0.0000000000000000000, 1.000000000000000000 ) ) ;
#223 = AXIS2_PLACEMENT_3D ( 'NONE', #76, #100, #77 ) ;
#224 = LINE ( 'NONE', #207, #143 ) ;
#225 = ORIENTED_EDGE ( 'NONE', *, *, #29, .F. ) ;
#226 = DIRECTION ( 'NONE',  ( 0.0000000000000000000, -0.0000000000000000000, 1.000000000000000000 ) ) ;
#227 = SURFACE_SIDE_STYLE ('',( #78 ) ) ;
#228 = DIRECTION ( 'NONE',  ( 0.0000000000000000000, 0.0000000000000000000, -1.000000000000000000 ) ) ;
#229 = EDGE_CURVE ( 'NONE', #243, #312, #23, .T. ) ;
#230 = CARTESIAN_POINT ( 'NONE',  ( 412.5000000000000600, -1.015000000000270100, -59.00000000000000700 ) ) ;
#231 = VECTOR ( 'NONE', #307, 1000.000000000000000 ) ;
#232 = ORIENTED_EDGE ( 'NONE', *, *, #62, .T. ) ;
#233 = DIRECTION ( 'NONE',  ( 0.0000000000000000000, -0.0000000000000000000, -1.000000000000000000 ) ) ;
#234 = VECTOR ( 'NONE', #123, 1000.000000000000000 ) ;
#235 = EDGE_CURVE ( 'NONE', #90, #75, #315, .T. ) ;
#236 = ORIENTED_EDGE ( 'NONE', *, *, #303, .F. ) ;
#237 = SURFACE_SIDE_STYLE ('',( #184 ) ) ;
#238 =( LENGTH_UNIT ( ) NAMED_UNIT ( * ) SI_UNIT ( .MILLI., .METRE. ) );
#239 = UNCERTAINTY_MEASURE_WITH_UNIT (LENGTH_MEASURE( 1.000000000000000100E-005 ), #345, 'distance_accuracy_value', 'NONE');
#240 = VECTOR ( 'NONE', #222, 1000.000000000000000 ) ;
#241 = ORIENTED_EDGE ( 'NONE', *, *, #268, .T. ) ;
#242 = EDGE_CURVE ( 'NONE', #138, #281, #249, .T. ) ;
#243 = VERTEX_POINT ( 'NONE', #118 ) ;
#244 = VECTOR ( 'NONE', #61, 1000.000000000000000 ) ;
#245 = ORIENTED_EDGE ( 'NONE', *, *, #260, .F. ) ;
#246 = EDGE_CURVE ( 'NONE', #281, #312, #173, .T. ) ;
#247 = CARTESIAN_POINT ( 'NONE',  ( -5.065392549852272000E-015, 53.00000000000000000, -60.00000000000000000 ) ) ;
#248 = CARTESIAN_POINT ( 'NONE',  ( 825.0000000000001100, -55.03000000000000100, -59.00000000000000700 ) ) ;
#249 = LINE ( 'NONE', #201, #264 ) ;
#250 = VERTEX_POINT ( 'NONE', #6 ) ;
#251 = CARTESIAN_POINT ( 'NONE',  ( -36.70000000000000300, 60.00000000000000000, -60.00000000000000000 ) ) ;
#252 = CARTESIAN_POINT ( 'NONE',  ( 825.0000000000001100, 53.00000000000000000, -59.00000000000000700 ) ) ;
#253 =( NAMED_UNIT ( * ) SI_UNIT ( $, .STERADIAN. ) SOLID_ANGLE_UNIT ( ) );
#254 = FACE_OUTER_BOUND ( 'NONE', #306, .T. ) ;
#255 = ORIENTED_EDGE ( 'NONE', *, *, #212, .F. ) ;
#256 = SURFACE_SIDE_STYLE ('',( #185 ) ) ;
#257 = ORIENTED_EDGE ( 'NONE', *, *, #197, .T. ) ;
#258 = CARTESIAN_POINT ( 'NONE',  ( -36.70000000000000300, -60.00000000000000000, -60.00000000000000000 ) ) ;
#259 = FILL_AREA_STYLE ('',( #112 ) ) ;
#260 = EDGE_CURVE ( 'NONE', #10, #243, #305, .T. ) ;
#261 = DIRECTION ( 'NONE',  ( -1.000000000000000000, 0.0000000000000000000, -0.0000000000000000000 ) ) ;
#262 = EDGE_LOOP ( 'NONE', ( #190, #182, #257, #106 ) ) ;
#263 = DIRECTION ( 'NONE',  ( 0.0000000000000000000, -0.0000000000000000000, -1.000000000000000000 ) ) ;
#264 = VECTOR ( 'NONE', #290, 1000.000000000000000 ) ;
#265 = FILL_AREA_STYLE_COLOUR ( '', #22 ) ;
#266 = LINE ( 'NONE', #1, #326 ) ;
#267 = EDGE_LOOP ( 'NONE', ( #209, #330, #316, #347 ) ) ;
#268 = EDGE_CURVE ( 'NONE', #312, #269, #224, .T. ) ;
#269 = VERTEX_POINT ( 'NONE', #168 ) ;
#270 = CARTESIAN_POINT ( 'NONE',  ( 825.0000000000001100, -2.309263891220330100E-013, -59.00000000000000700 ) ) ;
#271 = VECTOR ( 'NONE', #155, 1000.000000000000000 ) ;
#272 = ORIENTED_EDGE ( 'NONE', *, *, #44, .F. ) ;
#273 = EDGE_LOOP ( 'NONE', ( #152, #186, #102, #241 ) ) ;
#274 = PRODUCT ( '6530016_CNAJF00', '6530016_CNAJF00', '', ( #211 ) ) ;
#275 = AXIS2_PLACEMENT_3D ( 'NONE', #202, #34, #228 ) ;
#276 = AXIS2_PLACEMENT_3D ( 'NONE', #251, #109, #89 ) ;
#277 = FILL_AREA_STYLE ('',( #358 ) ) ;
#278 = ADVANCED_FACE ( 'NONE', ( #254 ), #38, .T. ) ;
#279 = PLANE ( 'NONE',  #166 ) ;
#280 = FACE_OUTER_BOUND ( 'NONE', #140, .T. ) ;
#281 = VERTEX_POINT ( 'NONE', #291 ) ;
#282 = ORIENTED_EDGE ( 'NONE', *, *, #52, .F. ) ;
#283 = ADVANCED_FACE ( 'NONE', ( #280 ), #172, .T. ) ;
#284 = EDGE_CURVE ( 'NONE', #51, #269, #298, .T. ) ;
#285 = EDGE_CURVE ( 'NONE', #90, #164, #135, .T. ) ;
#286 = DIRECTION ( 'NONE',  ( 0.0000000000000000000, -1.000000000000000000, -0.0000000000000000000 ) ) ;
#287 = ADVANCED_BREP_SHAPE_REPRESENTATION ( '6530016_CNAJF00', ( #148, #318 ), #355 ) ;
#288 = DIRECTION ( 'NONE',  ( -0.0000000000000000000, -1.000000000000000000, -0.0000000000000000000 ) ) ;
#289 = ORIENTED_EDGE ( 'NONE', *, *, #246, .F. ) ;
#290 = DIRECTION ( 'NONE',  ( -0.0000000000000000000, 1.000000000000000000, 0.0000000000000000000 ) ) ;
#291 = CARTESIAN_POINT ( 'NONE',  ( 861.7000000000000500, 60.00000000000000000, -60.00000000000000000 ) ) ;
#292 = FILL_AREA_STYLE ('',( #265 ) ) ;
#293 = UNCERTAINTY_MEASURE_WITH_UNIT (LENGTH_MEASURE( 1.000000000000000100E-005 ), #65, 'distance_accuracy_value', 'NONE');
#294 = LINE ( 'NONE', #162, #40 ) ;
#295 = ORIENTED_EDGE ( 'NONE', *, *, #11, .F. ) ;
#296 = PRODUCT_DEFINITION_FORMATION_WITH_SPECIFIED_SOURCE ( 'ANY', '', #274, .NOT_KNOWN. ) ;
#297 = FACE_OUTER_BOUND ( 'NONE', #174, .T. ) ;
#298 = LINE ( 'NONE', #339, #115 ) ;
#299 = ORIENTED_EDGE ( 'NONE', *, *, #197, .F. ) ;
#300 = DIRECTION ( 'NONE',  ( 0.0000000000000000000, 0.0000000000000000000, -1.000000000000000000 ) ) ;
#301 = PRODUCT_RELATED_PRODUCT_CATEGORY ( 'part', '', ( #274 ) ) ;
#302 = LINE ( 'NONE', #110, #352 ) ;
#303 = EDGE_CURVE ( 'NONE', #10, #327, #199, .T. ) ;
#304 = CARTESIAN_POINT ( 'NONE',  ( -2.220446049250309900E-015, 53.00000000000000000, -59.00000000000000700 ) ) ;
#305 = LINE ( 'NONE', #314, #213 ) ;
#306 = EDGE_LOOP ( 'NONE', ( #36, #151, #236, #85 ) ) ;
#307 = DIRECTION ( 'NONE',  ( 1.000000000000000000, -0.0000000000000000000, 0.0000000000000000000 ) ) ;
#308 = ADVANCED_FACE ( 'NONE', ( #334 ), #177, .T. ) ;
#309 = DIRECTION ( 'NONE',  ( -0.0000000000000000000, 0.0000000000000000000, -1.000000000000000000 ) ) ;
#310 = CARTESIAN_POINT ( 'NONE',  ( -4.440892098500619900E-015, 53.00000000000000000, -30.00000000000000000 ) ) ;
#311 = LINE ( 'NONE', #331, #240 ) ;
#312 = VERTEX_POINT ( 'NONE', #15 ) ;
#313 = EDGE_CURVE ( 'NONE', #281, #51, #53, .T. ) ;
#314 = CARTESIAN_POINT ( 'NONE',  ( -36.70000000000000300, -60.00000000000000000, -60.00000000000000000 ) ) ;
#315 = LINE ( 'NONE', #72, #344 ) ;
#316 = ORIENTED_EDGE ( 'NONE', *, *, #158, .F. ) ;
#317 = CARTESIAN_POINT ( 'NONE',  ( -36.70000000000000300, 60.00000000000000000, 0.0000000000000000000 ) ) ;
#318 = AXIS2_PLACEMENT_3D ( 'NONE', #321, #17, #43 ) ;
#319 =( NAMED_UNIT ( * ) PLANE_ANGLE_UNIT ( ) SI_UNIT ( $, .RADIAN. ) );
#320 = VECTOR ( 'NONE', #300, 1000.000000000000000 ) ;
#321 = CARTESIAN_POINT ( 'NONE',  ( 0.0000000000000000000, 0.0000000000000000000, 0.0000000000000000000 ) ) ;
#322 = LINE ( 'NONE', #71, #122 ) ;
#323 = VECTOR ( 'NONE', #193, 1000.000000000000000 ) ;
#324 = PLANE ( 'NONE',  #338 ) ;
#325 = UNCERTAINTY_MEASURE_WITH_UNIT (LENGTH_MEASURE( 1.000000000000000100E-005 ), #238, 'distance_accuracy_value', 'NONE');
#326 = VECTOR ( 'NONE', #32, 1000.000000000000000 ) ;
#327 = VERTEX_POINT ( 'NONE', #104 ) ;
#328 = PLANE ( 'NONE',  #276 ) ;
#329 = FACE_OUTER_BOUND ( 'NONE', #117, .T. ) ;
#330 = ORIENTED_EDGE ( 'NONE', *, *, #62, .F. ) ;
#331 = CARTESIAN_POINT ( 'NONE',  ( -4.440892098500619900E-015, -55.03000000000000100, -48.00000000000000000 ) ) ;
#332 = CARTESIAN_POINT ( 'NONE',  ( 861.7000000000000500, -60.00000000000000000, -60.00000000000000000 ) ) ;
#333 = PLANE ( 'NONE',  #131 ) ;
#334 = FACE_OUTER_BOUND ( 'NONE', #273, .T. ) ;
#335 = LINE ( 'NONE', #142, #244 ) ;
#336 = DIRECTION ( 'NONE',  ( 0.0000000000000000000, 0.0000000000000000000, -1.000000000000000000 ) ) ;
#337 = CARTESIAN_POINT ( 'NONE',  ( -4.440892098500619900E-015, 0.0000000000000000000, -59.00000000000000700 ) ) ;
#338 = AXIS2_PLACEMENT_3D ( 'NONE', #187, #191, #354 ) ;
#339 = CARTESIAN_POINT ( 'NONE',  ( -36.70000000000000300, 60.00000000000000000, 0.0000000000000000000 ) ) ;
#340 = ADVANCED_FACE ( 'NONE', ( #204 ), #13, .F. ) ;
#341 = VECTOR ( 'NONE', #286, 1000.000000000000000 ) ;
#342 = ORIENTED_EDGE ( 'NONE', *, *, #52, .T. ) ;
#343 = PRODUCT_DEFINITION ( 'UNKNOWN', '', #296, #119 ) ;
#344 = VECTOR ( 'NONE', #288, 1000.000000000000000 ) ;
#345 =( LENGTH_UNIT ( ) NAMED_UNIT ( * ) SI_UNIT ( .MILLI., .METRE. ) );
#346 = EDGE_LOOP ( 'NONE', ( #255, #349, #210, #31 ) ) ;
#347 = ORIENTED_EDGE ( 'NONE', *, *, #2, .F. ) ;
#348 =( NAMED_UNIT ( * ) SI_UNIT ( $, .STERADIAN. ) SOLID_ANGLE_UNIT ( ) );
#349 = ORIENTED_EDGE ( 'NONE', *, *, #175, .T. ) ;
#350 = LINE ( 'NONE', #337, #194 ) ;
#351 = DIRECTION ( 'NONE',  ( 0.0000000000000000000, -1.000000000000000000, -0.0000000000000000000 ) ) ;
#352 = VECTOR ( 'NONE', #92, 1000.000000000000000 ) ;
#353 = ORIENTED_EDGE ( 'NONE', *, *, #192, .F. ) ;
#354 = DIRECTION ( 'NONE',  ( 0.0000000000000000000, -0.0000000000000000000, -1.000000000000000000 ) ) ;
#355 =( GEOMETRIC_REPRESENTATION_CONTEXT ( 3 ) GLOBAL_UNCERTAINTY_ASSIGNED_CONTEXT ( ( #325 ) ) GLOBAL_UNIT_ASSIGNED_CONTEXT ( ( #238, #129, #348 ) ) REPRESENTATION_CONTEXT ( 'NONE', 'WORKASPACE' ) );
#356 = EDGE_LOOP ( 'NONE', ( #24, #19, #80, #14 ) ) ;
#357 = CARTESIAN_POINT ( 'NONE',  ( 825.0000000000001100, -2.309263891220330100E-013, -30.00000000000000000 ) ) ;
#358 = FILL_AREA_STYLE_COLOUR ( '', #218 ) ;
#359 = PRESENTATION_STYLE_ASSIGNMENT (( #50 ) ) ;
ENDSEC;
END-ISO-10303-21;
