ISO-10303-21;
HEADER;
FILE_DESCRIPTION (( 'STEP AP214' ),
    '1' );
FILE_NAME ('6520272',
    '2019-02-01T12:48:44',
    ( '' ),
    ('JUGARD+KÜNSTNER GmbH'),
    'SwSTEP 2.0',
    'SolidWorks 2017',
    '' );
FILE_SCHEMA (( 'AUTOMOTIVE_DESIGN' ));
ENDSEC;

DATA;
#1 = UNCERTAINTY_MEASURE_WITH_UNIT (LENGTH_MEASURE( 1.000000000000000100E-005 ), #77, 'distance_accuracy_value', 'NONE');
#2 = FACE_OUTER_BOUND ( 'NONE', #41, .T. ) ;
#3 = ORIENTED_EDGE ( 'NONE', *, *, #7, .T. ) ;
#4 = CARTESIAN_POINT ( 'NONE',  ( -500.0000000000000000, -250.0000000000000000, 0.0000000000000000000 ) ) ;
#5 = CARTESIAN_POINT ( 'NONE',  ( 500.0000000000000000, -250.0000000000000000, 5.000000000000000000 ) ) ;
#6 = VECTOR ( 'NONE', #96, 1000.000000000000000 ) ;
#7 = EDGE_CURVE ( 'NONE', #82, #14, #74, .T. ) ;
#8 = DIRECTION ( 'NONE',  ( 0.0000000000000000000, 1.000000000000000000, -0.0000000000000000000 ) ) ;
#9 = DIRECTION ( 'NONE',  ( 0.0000000000000000000, 1.000000000000000000, 0.0000000000000000000 ) ) ;
#10 = EDGE_CURVE ( 'NONE', #39, #82, #133, .T. ) ;
#11 = ORIENTED_EDGE ( 'NONE', *, *, #190, .T. ) ;
#12 = DIRECTION ( 'NONE',  ( 0.0000000000000000000, 0.0000000000000000000, 1.000000000000000000 ) ) ;
#13 = DIRECTION ( 'NONE',  ( -0.0000000000000000000, 0.0000000000000000000, 1.000000000000000000 ) ) ;
#14 = VERTEX_POINT ( 'NONE', #18 ) ;
#15 = APPLICATION_CONTEXT ( 'automotive_design' ) ;
#16 = FILL_AREA_STYLE ('',( #50 ) ) ;
#17 = PRESENTATION_LAYER_ASSIGNMENT (  '', '', ( #121 ) ) ;
#18 = CARTESIAN_POINT ( 'NONE',  ( 500.0000000000000000, -250.0000000000000000, 0.0000000000000000000 ) ) ;
#19 = COLOUR_RGB ( '',1.000000000000000000, 1.000000000000000000, 1.000000000000000000 ) ;
#20 = ORIENTED_EDGE ( 'NONE', *, *, #85, .T. ) ;
#21 = DIRECTION ( 'NONE',  ( -1.000000000000000000, -0.0000000000000000000, 0.0000000000000000000 ) ) ;
#22 = STYLED_ITEM ( 'NONE', ( #35 ), #83 ) ;
#23 = ORIENTED_EDGE ( 'NONE', *, *, #135, .T. ) ;
#24 = ORIENTED_EDGE ( 'NONE', *, *, #40, .F. ) ;
#25 = VECTOR ( 'NONE', #91, 1000.000000000000000 ) ;
#26 = EDGE_LOOP ( 'NONE', ( #159, #177, #188, #132 ) ) ;
#27 = PLANE ( 'NONE',  #43 ) ;
#28 = SURFACE_STYLE_FILL_AREA ( #29 ) ;
#29 = FILL_AREA_STYLE ('',( #72 ) ) ;
#30 = CARTESIAN_POINT ( 'NONE',  ( 500.0000000000000000, 250.0000000000000000, 5.000000000000000000 ) ) ;
#31 = LINE ( 'NONE', #193, #105 ) ;
#32 = ADVANCED_FACE ( 'NONE', ( #67 ), #129, .F. ) ;
#33 = UNCERTAINTY_MEASURE_WITH_UNIT (LENGTH_MEASURE( 1.000000000000000100E-005 ), #46, 'distance_accuracy_value', 'NONE');
#34 = PRODUCT_CONTEXT ( 'NONE', #127, 'mechanical' ) ;
#35 = PRESENTATION_STYLE_ASSIGNMENT (( #59 ) ) ;
#36 =( NAMED_UNIT ( * ) PLANE_ANGLE_UNIT ( ) SI_UNIT ( $, .RADIAN. ) );
#37 =( NAMED_UNIT ( * ) SI_UNIT ( $, .STERADIAN. ) SOLID_ANGLE_UNIT ( ) );
#38 = DIRECTION ( 'NONE',  ( 0.0000000000000000000, 0.0000000000000000000, -1.000000000000000000 ) ) ;
#39 = VERTEX_POINT ( 'NONE', #142 ) ;
#40 = EDGE_CURVE ( 'NONE', #170, #139, #161, .T. ) ;
#41 = EDGE_LOOP ( 'NONE', ( #23, #116, #75, #182 ) ) ;
#42 = ORIENTED_EDGE ( 'NONE', *, *, #200, .T. ) ;
#43 = AXIS2_PLACEMENT_3D ( 'NONE', #100, #84, #119 ) ;
#44 = DIRECTION ( 'NONE',  ( 0.0000000000000000000, 0.0000000000000000000, 1.000000000000000000 ) ) ;
#45 = VERTEX_POINT ( 'NONE', #118 ) ;
#46 =( LENGTH_UNIT ( ) NAMED_UNIT ( * ) SI_UNIT ( .MILLI., .METRE. ) );
#47 = ORIENTED_EDGE ( 'NONE', *, *, #90, .T. ) ;
#48 = APPLICATION_PROTOCOL_DEFINITION ( 'draft international standard', 'automotive_design', 1998, #15 ) ;
#49 = LINE ( 'NONE', #166, #69 ) ;
#50 = FILL_AREA_STYLE_COLOUR ( '', #101 ) ;
#51 = ORIENTED_EDGE ( 'NONE', *, *, #52, .T. ) ;
#52 = EDGE_CURVE ( 'NONE', #139, #93, #88, .T. ) ;
#53 =( GEOMETRIC_REPRESENTATION_CONTEXT ( 3 ) GLOBAL_UNCERTAINTY_ASSIGNED_CONTEXT ( ( #115 ) ) GLOBAL_UNIT_ASSIGNED_CONTEXT ( ( #108, #36, #185 ) ) REPRESENTATION_CONTEXT ( 'NONE', 'WORKASPACE' ) );
#54 = ORIENTED_EDGE ( 'NONE', *, *, #195, .T. ) ;
#55 = CARTESIAN_POINT ( 'NONE',  ( -500.0000000000000000, -250.0000000000000000, 5.000000000000000000 ) ) ;
#56 = ORIENTED_EDGE ( 'NONE', *, *, #135, .F. ) ;
#57 = CARTESIAN_POINT ( 'NONE',  ( 500.0000000000000000, 250.0000000000000000, 5.000000000000000000 ) ) ;
#58 = ADVANCED_BREP_SHAPE_REPRESENTATION ( '6520272_CNAJF00', ( #83, #189 ), #99 ) ;
#59 = SURFACE_STYLE_USAGE ( .BOTH. , #123 ) ;
#60 = CARTESIAN_POINT ( 'NONE',  ( -500.0000000000000000, 250.0000000000000000, 5.000000000000000000 ) ) ;
#61 = ADVANCED_FACE ( 'NONE', ( #196 ), #71, .F. ) ;
#62 = CARTESIAN_POINT ( 'NONE',  ( 0.0000000000000000000, 0.0000000000000000000, 0.0000000000000000000 ) ) ;
#63 = VECTOR ( 'NONE', #13, 1000.000000000000000 ) ;
#64 = CARTESIAN_POINT ( 'NONE',  ( 500.0000000000000000, -250.0000000000000000, 0.0000000000000000000 ) ) ;
#65 = DIRECTION ( 'NONE',  ( 0.0000000000000000000, -1.000000000000000000, -0.0000000000000000000 ) ) ;
#66 = DIRECTION ( 'NONE',  ( 1.000000000000000000, 0.0000000000000000000, -0.0000000000000000000 ) ) ;
#67 = FACE_OUTER_BOUND ( 'NONE', #26, .T. ) ;
#68 = SHAPE_DEFINITION_REPRESENTATION ( #102, #58 ) ;
#69 = VECTOR ( 'NONE', #12, 1000.000000000000000 ) ;
#70 = CARTESIAN_POINT ( 'NONE',  ( -500.0000000000000000, -250.0000000000000000, 0.0000000000000000000 ) ) ;
#71 = PLANE ( 'NONE',  #153 ) ;
#72 = FILL_AREA_STYLE_COLOUR ( '', #19 ) ;
#73 =( NAMED_UNIT ( * ) SI_UNIT ( $, .STERADIAN. ) SOLID_ANGLE_UNIT ( ) );
#74 = LINE ( 'NONE', #4, #146 ) ;
#75 = ORIENTED_EDGE ( 'NONE', *, *, #131, .F. ) ;
#76 = PLANE ( 'NONE',  #149 ) ;
#77 =( LENGTH_UNIT ( ) NAMED_UNIT ( * ) SI_UNIT ( .MILLI., .METRE. ) );
#78 = ADVANCED_FACE ( 'NONE', ( #2 ), #27, .F. ) ;
#79 = FACE_OUTER_BOUND ( 'NONE', #98, .T. ) ;
#80 = DIRECTION ( 'NONE',  ( 0.0000000000000000000, 0.0000000000000000000, -1.000000000000000000 ) ) ;
#81 = CLOSED_SHELL ( 'NONE', ( #32, #169, #78, #104, #61, #137 ) ) ;
#82 = VERTEX_POINT ( 'NONE', #70 ) ;
#83 = MANIFOLD_SOLID_BREP ( 'Importiert1', #81 ) ;
#84 = DIRECTION ( 'NONE',  ( 0.0000000000000000000, -1.000000000000000000, 0.0000000000000000000 ) ) ;
#85 = EDGE_CURVE ( 'NONE', #14, #170, #49, .T. ) ;
#86 = EDGE_LOOP ( 'NONE', ( #172, #51, #54, #47 ) ) ;
#87 = PRODUCT_RELATED_PRODUCT_CATEGORY ( 'part', '', ( #143 ) ) ;
#88 = LINE ( 'NONE', #57, #112 ) ;
#89 = CARTESIAN_POINT ( 'NONE',  ( 500.0000000000000000, 250.0000000000000000, 5.000000000000000000 ) ) ;
#90 = EDGE_CURVE ( 'NONE', #39, #170, #187, .T. ) ;
#91 = DIRECTION ( 'NONE',  ( 1.000000000000000000, 0.0000000000000000000, -0.0000000000000000000 ) ) ;
#92 = CARTESIAN_POINT ( 'NONE',  ( -500.0000000000000000, 250.0000000000000000, 5.000000000000000000 ) ) ;
#93 = VERTEX_POINT ( 'NONE', #60 ) ;
#94 = SURFACE_SIDE_STYLE ('',( #168 ) ) ;
#95 =( NAMED_UNIT ( * ) PLANE_ANGLE_UNIT ( ) SI_UNIT ( $, .RADIAN. ) );
#96 = DIRECTION ( 'NONE',  ( 0.0000000000000000000, -1.000000000000000000, -0.0000000000000000000 ) ) ;
#97 = PRESENTATION_STYLE_ASSIGNMENT (( #158 ) ) ;
#98 = EDGE_LOOP ( 'NONE', ( #163, #122, #56, #11 ) ) ;
#99 =( GEOMETRIC_REPRESENTATION_CONTEXT ( 3 ) GLOBAL_UNCERTAINTY_ASSIGNED_CONTEXT ( ( #1 ) ) GLOBAL_UNIT_ASSIGNED_CONTEXT ( ( #77, #95, #37 ) ) REPRESENTATION_CONTEXT ( 'NONE', 'WORKASPACE' ) );
#100 = CARTESIAN_POINT ( 'NONE',  ( 500.0000000000000000, 250.0000000000000000, 5.000000000000000000 ) ) ;
#101 = COLOUR_RGB ( '',0.7529411764705882200, 0.7529411764705882200, 0.7529411764705882200 ) ;
#102 = PRODUCT_DEFINITION_SHAPE ( 'NONE', 'NONE',  #117 ) ;
#103 = DIRECTION ( 'NONE',  ( -0.0000000000000000000, -0.0000000000000000000, 1.000000000000000000 ) ) ;
#104 = ADVANCED_FACE ( 'NONE', ( #201 ), #154, .F. ) ;
#105 = VECTOR ( 'NONE', #103, 1000.000000000000000 ) ;
#106 = VERTEX_POINT ( 'NONE', #138 ) ;
#107 = AXIS2_PLACEMENT_3D ( 'NONE', #114, #111, #160 ) ;
#108 =( LENGTH_UNIT ( ) NAMED_UNIT ( * ) SI_UNIT ( .MILLI., .METRE. ) );
#109 = VECTOR ( 'NONE', #21, 1000.000000000000000 ) ;
#110 = CARTESIAN_POINT ( 'NONE',  ( -500.0000000000000000, 250.0000000000000000, 0.0000000000000000000 ) ) ;
#111 = DIRECTION ( 'NONE',  ( 0.0000000000000000000, 0.0000000000000000000, 1.000000000000000000 ) ) ;
#112 = VECTOR ( 'NONE', #148, 1000.000000000000000 ) ;
#113 = CARTESIAN_POINT ( 'NONE',  ( -500.0000000000000000, -250.0000000000000000, 5.000000000000000000 ) ) ;
#114 = CARTESIAN_POINT ( 'NONE',  ( -500.0000000000000000, -250.0000000000000000, 0.0000000000000000000 ) ) ;
#115 = UNCERTAINTY_MEASURE_WITH_UNIT (LENGTH_MEASURE( 1.000000000000000100E-005 ), #108, 'distance_accuracy_value', 'NONE');
#116 = ORIENTED_EDGE ( 'NONE', *, *, #52, .F. ) ;
#117 = PRODUCT_DEFINITION ( 'UNKNOWN', '', #155, #162 ) ;
#118 = CARTESIAN_POINT ( 'NONE',  ( -500.0000000000000000, 250.0000000000000000, 0.0000000000000000000 ) ) ;
#119 = DIRECTION ( 'NONE',  ( 0.0000000000000000000, -0.0000000000000000000, -1.000000000000000000 ) ) ;
#120 = LINE ( 'NONE', #30, #63 ) ;
#121 = STYLED_ITEM ( 'NONE', ( #97 ), #58 ) ;
#122 = ORIENTED_EDGE ( 'NONE', *, *, #195, .F. ) ;
#123 = SURFACE_SIDE_STYLE ('',( #28 ) ) ;
#124 = DIRECTION ( 'NONE',  ( 0.0000000000000000000, 0.0000000000000000000, 1.000000000000000000 ) ) ;
#125 = CARTESIAN_POINT ( 'NONE',  ( -500.0000000000000000, -250.0000000000000000, 0.0000000000000000000 ) ) ;
#126 = ORIENTED_EDGE ( 'NONE', *, *, #10, .T. ) ;
#127 = APPLICATION_CONTEXT ( 'automotive_design' ) ;
#128 = APPLICATION_PROTOCOL_DEFINITION ( 'draft international standard', 'automotive_design', 1998, #127 ) ;
#129 = PLANE ( 'NONE',  #107 ) ;
#130 = EDGE_LOOP ( 'NONE', ( #20, #165, #126, #3 ) ) ;
#131 = EDGE_CURVE ( 'NONE', #106, #139, #120, .T. ) ;
#132 = ORIENTED_EDGE ( 'NONE', *, *, #190, .F. ) ;
#133 = LINE ( 'NONE', #113, #151 ) ;
#134 = AXIS2_PLACEMENT_3D ( 'NONE', #136, #152, #44 ) ;
#135 = EDGE_CURVE ( 'NONE', #45, #93, #31, .T. ) ;
#136 = CARTESIAN_POINT ( 'NONE',  ( 500.0000000000000000, -250.0000000000000000, 5.000000000000000000 ) ) ;
#137 = ADVANCED_FACE ( 'NONE', ( #175 ), #76, .T. ) ;
#138 = CARTESIAN_POINT ( 'NONE',  ( 500.0000000000000000, 250.0000000000000000, 0.0000000000000000000 ) ) ;
#139 = VERTEX_POINT ( 'NONE', #89 ) ;
#140 = DIRECTION ( 'NONE',  ( 1.000000000000000000, 0.0000000000000000000, 0.0000000000000000000 ) ) ;
#141 = AXIS2_PLACEMENT_3D ( 'NONE', #199, #202, #80 ) ;
#142 = CARTESIAN_POINT ( 'NONE',  ( -500.0000000000000000, -250.0000000000000000, 5.000000000000000000 ) ) ;
#143 = PRODUCT ( '6520272_CNAJF00', '6520272_CNAJF00', '', ( #34 ) ) ;
#144 = ORIENTED_EDGE ( 'NONE', *, *, #131, .T. ) ;
#145 = LINE ( 'NONE', #92, #192 ) ;
#146 = VECTOR ( 'NONE', #66, 1000.000000000000000 ) ;
#147 = EDGE_LOOP ( 'NONE', ( #144, #24, #197, #42 ) ) ;
#148 = DIRECTION ( 'NONE',  ( -1.000000000000000000, -0.0000000000000000000, -0.0000000000000000000 ) ) ;
#149 = AXIS2_PLACEMENT_3D ( 'NONE', #198, #124, #150 ) ;
#150 = DIRECTION ( 'NONE',  ( 1.000000000000000000, 0.0000000000000000000, -0.0000000000000000000 ) ) ;
#151 = VECTOR ( 'NONE', #38, 1000.000000000000000 ) ;
#152 = DIRECTION ( 'NONE',  ( -1.000000000000000000, 0.0000000000000000000, 0.0000000000000000000 ) ) ;
#153 = AXIS2_PLACEMENT_3D ( 'NONE', #55, #9, #164 ) ;
#154 = PLANE ( 'NONE',  #134 ) ;
#155 = PRODUCT_DEFINITION_FORMATION_WITH_SPECIFIED_SOURCE ( 'ANY', '', #143, .NOT_KNOWN. ) ;
#156 = LINE ( 'NONE', #64, #178 ) ;
#157 = PRESENTATION_LAYER_ASSIGNMENT (  '', '', ( #22 ) ) ;
#158 = SURFACE_STYLE_USAGE ( .BOTH. , #94 ) ;
#159 = ORIENTED_EDGE ( 'NONE', *, *, #176, .F. ) ;
#160 = DIRECTION ( 'NONE',  ( 1.000000000000000000, 0.0000000000000000000, -0.0000000000000000000 ) ) ;
#161 = LINE ( 'NONE', #5, #191 ) ;
#162 = PRODUCT_DEFINITION_CONTEXT ( 'detailed design', #15, 'design' ) ;
#163 = ORIENTED_EDGE ( 'NONE', *, *, #10, .F. ) ;
#164 = DIRECTION ( 'NONE',  ( 0.0000000000000000000, -0.0000000000000000000, 1.000000000000000000 ) ) ;
#165 = ORIENTED_EDGE ( 'NONE', *, *, #90, .F. ) ;
#166 = CARTESIAN_POINT ( 'NONE',  ( 500.0000000000000000, -250.0000000000000000, 5.000000000000000000 ) ) ;
#167 = MECHANICAL_DESIGN_GEOMETRIC_PRESENTATION_REPRESENTATION (  '', ( #22 ), #174 ) ;
#168 = SURFACE_STYLE_FILL_AREA ( #16 ) ;
#169 = ADVANCED_FACE ( 'NONE', ( #79 ), #183, .F. ) ;
#170 = VERTEX_POINT ( 'NONE', #179 ) ;
#171 = DIRECTION ( 'NONE',  ( 0.0000000000000000000, 0.0000000000000000000, 1.000000000000000000 ) ) ;
#172 = ORIENTED_EDGE ( 'NONE', *, *, #40, .T. ) ;
#173 = MECHANICAL_DESIGN_GEOMETRIC_PRESENTATION_REPRESENTATION (  '', ( #121 ), #53 ) ;
#174 =( GEOMETRIC_REPRESENTATION_CONTEXT ( 3 ) GLOBAL_UNCERTAINTY_ASSIGNED_CONTEXT ( ( #33 ) ) GLOBAL_UNIT_ASSIGNED_CONTEXT ( ( #46, #194, #73 ) ) REPRESENTATION_CONTEXT ( 'NONE', 'WORKASPACE' ) );
#175 = FACE_OUTER_BOUND ( 'NONE', #86, .T. ) ;
#176 = EDGE_CURVE ( 'NONE', #106, #45, #181, .T. ) ;
#177 = ORIENTED_EDGE ( 'NONE', *, *, #200, .F. ) ;
#178 = VECTOR ( 'NONE', #184, 1000.000000000000000 ) ;
#179 = CARTESIAN_POINT ( 'NONE',  ( 500.0000000000000000, -250.0000000000000000, 5.000000000000000000 ) ) ;
#180 = CARTESIAN_POINT ( 'NONE',  ( -500.0000000000000000, -250.0000000000000000, 5.000000000000000000 ) ) ;
#181 = LINE ( 'NONE', #110, #109 ) ;
#182 = ORIENTED_EDGE ( 'NONE', *, *, #176, .T. ) ;
#183 = PLANE ( 'NONE',  #141 ) ;
#184 = DIRECTION ( 'NONE',  ( -0.0000000000000000000, 1.000000000000000000, 0.0000000000000000000 ) ) ;
#185 =( NAMED_UNIT ( * ) SI_UNIT ( $, .STERADIAN. ) SOLID_ANGLE_UNIT ( ) );
#186 = LINE ( 'NONE', #125, #6 ) ;
#187 = LINE ( 'NONE', #180, #25 ) ;
#188 = ORIENTED_EDGE ( 'NONE', *, *, #7, .F. ) ;
#189 = AXIS2_PLACEMENT_3D ( 'NONE', #62, #171, #140 ) ;
#190 = EDGE_CURVE ( 'NONE', #45, #82, #186, .T. ) ;
#191 = VECTOR ( 'NONE', #8, 1000.000000000000000 ) ;
#192 = VECTOR ( 'NONE', #65, 1000.000000000000000 ) ;
#193 = CARTESIAN_POINT ( 'NONE',  ( -500.0000000000000000, 250.0000000000000000, 5.000000000000000000 ) ) ;
#194 =( NAMED_UNIT ( * ) PLANE_ANGLE_UNIT ( ) SI_UNIT ( $, .RADIAN. ) );
#195 = EDGE_CURVE ( 'NONE', #93, #39, #145, .T. ) ;
#196 = FACE_OUTER_BOUND ( 'NONE', #130, .T. ) ;
#197 = ORIENTED_EDGE ( 'NONE', *, *, #85, .F. ) ;
#198 = CARTESIAN_POINT ( 'NONE',  ( -500.0000000000000000, -250.0000000000000000, 5.000000000000000000 ) ) ;
#199 = CARTESIAN_POINT ( 'NONE',  ( -500.0000000000000000, 250.0000000000000000, 5.000000000000000000 ) ) ;
#200 = EDGE_CURVE ( 'NONE', #14, #106, #156, .T. ) ;
#201 = FACE_OUTER_BOUND ( 'NONE', #147, .T. ) ;
#202 = DIRECTION ( 'NONE',  ( 1.000000000000000000, 0.0000000000000000000, 0.0000000000000000000 ) ) ;
ENDSEC;
END-ISO-10303-21;
