ISO-10303-21;
HEADER;
FILE_DESCRIPTION (( 'STEP AP214' ),
    '1' );
FILE_NAME ('6520260',
    '2019-02-01T12:48:42',
    ( '' ),
    ('JUGARD+KÜNSTNER GmbH'),
    'SwSTEP 2.0',
    'SolidWorks 2017',
    '' );
FILE_SCHEMA (( 'AUTOMOTIVE_DESIGN' ));
ENDSEC;

DATA;
#1 = DIRECTION ( 'NONE',  ( 0.0000000000000000000, 1.000000000000000000, 0.0000000000000000000 ) ) ;
#2 = EDGE_CURVE ( 'NONE', #132, #197, #40, .T. ) ;
#3 = ORIENTED_EDGE ( 'NONE', *, *, #2, .T. ) ;
#4 = CARTESIAN_POINT ( 'NONE',  ( 1151.999999999960000, -737.9999999999849900, 3.999999999994440400 ) ) ;
#5 = ORIENTED_EDGE ( 'NONE', *, *, #32, .F. ) ;
#6 =( NAMED_UNIT ( * ) SI_UNIT ( $, .STERADIAN. ) SOLID_ANGLE_UNIT ( ) );
#7 = EDGE_CURVE ( 'NONE', #132, #22, #162, .T. ) ;
#8 = PRODUCT_CONTEXT ( 'NONE', #39, 'mechanical' ) ;
#9 = ORIENTED_EDGE ( 'NONE', *, *, #78, .F. ) ;
#10 = CARTESIAN_POINT ( 'NONE',  ( -848.0000000000350200, -737.9999999999849900, 0.9999999999944381200 ) ) ;
#11 = ORIENTED_EDGE ( 'NONE', *, *, #190, .T. ) ;
#12 = ADVANCED_BREP_SHAPE_REPRESENTATION ( '6520260_CNAJF00', ( #92, #202 ), #46 ) ;
#13 = PRESENTATION_LAYER_ASSIGNMENT (  '', '', ( #187 ) ) ;
#14 = CARTESIAN_POINT ( 'NONE',  ( 1151.999999999960000, 262.0000000000150100, 3.999999999994440400 ) ) ;
#15 = FACE_OUTER_BOUND ( 'NONE', #72, .T. ) ;
#16 = DIRECTION ( 'NONE',  ( 1.000000000000000000, 0.0000000000000000000, 0.0000000000000000000 ) ) ;
#17 = ORIENTED_EDGE ( 'NONE', *, *, #71, .T. ) ;
#18 = DIRECTION ( 'NONE',  ( -1.000000000000000000, -0.0000000000000000000, -0.0000000000000000000 ) ) ;
#19 = CARTESIAN_POINT ( 'NONE',  ( 1151.999999999960000, 262.0000000000150100, 3.999999999994440400 ) ) ;
#20 = AXIS2_PLACEMENT_3D ( 'NONE', #141, #49, #68 ) ;
#21 = SURFACE_STYLE_FILL_AREA ( #88 ) ;
#22 = VERTEX_POINT ( 'NONE', #42 ) ;
#23 = EDGE_CURVE ( 'NONE', #38, #167, #129, .T. ) ;
#24 = FILL_AREA_STYLE_COLOUR ( '', #143 ) ;
#25 = VECTOR ( 'NONE', #177, 1000.000000000000000 ) ;
#26 = PRODUCT ( '6520260_CNAJF00', '6520260_CNAJF00', '', ( #8 ) ) ;
#27 = FACE_OUTER_BOUND ( 'NONE', #161, .T. ) ;
#28 = ORIENTED_EDGE ( 'NONE', *, *, #163, .F. ) ;
#29 = DIRECTION ( 'NONE',  ( 0.0000000000000000000, -1.000000000000000000, -0.0000000000000000000 ) ) ;
#30 = VECTOR ( 'NONE', #81, 1000.000000000000000 ) ;
#31 = DIRECTION ( 'NONE',  ( 0.0000000000000000000, 0.0000000000000000000, 1.000000000000000000 ) ) ;
#32 = EDGE_CURVE ( 'NONE', #197, #122, #101, .T. ) ;
#33 = VECTOR ( 'NONE', #18, 1000.000000000000000 ) ;
#34 = CARTESIAN_POINT ( 'NONE',  ( -848.0000000000350200, -737.9999999999849900, 0.9999999999944381200 ) ) ;
#35 = EDGE_LOOP ( 'NONE', ( #3, #9, #62, #130 ) ) ;
#36 = AXIS2_PLACEMENT_3D ( 'NONE', #172, #160, #109 ) ;
#37 = DIRECTION ( 'NONE',  ( -1.000000000000000000, 0.0000000000000000000, 0.0000000000000000000 ) ) ;
#38 = VERTEX_POINT ( 'NONE', #113 ) ;
#39 = APPLICATION_CONTEXT ( 'automotive_design' ) ;
#40 = LINE ( 'NONE', #63, #25 ) ;
#41 = FACE_OUTER_BOUND ( 'NONE', #65, .T. ) ;
#42 = CARTESIAN_POINT ( 'NONE',  ( -848.0000000000350200, -737.9999999999849900, 0.9999999999944381200 ) ) ;
#43 = AXIS2_PLACEMENT_3D ( 'NONE', #34, #138, #125 ) ;
#44 =( NAMED_UNIT ( * ) PLANE_ANGLE_UNIT ( ) SI_UNIT ( $, .RADIAN. ) );
#45 =( LENGTH_UNIT ( ) NAMED_UNIT ( * ) SI_UNIT ( .MILLI., .METRE. ) );
#46 =( GEOMETRIC_REPRESENTATION_CONTEXT ( 3 ) GLOBAL_UNCERTAINTY_ASSIGNED_CONTEXT ( ( #180 ) ) GLOBAL_UNIT_ASSIGNED_CONTEXT ( ( #104, #90, #6 ) ) REPRESENTATION_CONTEXT ( 'NONE', 'WORKASPACE' ) );
#47 = LINE ( 'NONE', #4, #30 ) ;
#48 = SURFACE_STYLE_USAGE ( .BOTH. , #166 ) ;
#49 = DIRECTION ( 'NONE',  ( 0.0000000000000000000, 0.0000000000000000000, 1.000000000000000000 ) ) ;
#50 = CARTESIAN_POINT ( 'NONE',  ( 0.0000000000000000000, 0.0000000000000000000, 0.0000000000000000000 ) ) ;
#51 = AXIS2_PLACEMENT_3D ( 'NONE', #168, #16, #85 ) ;
#52 = UNCERTAINTY_MEASURE_WITH_UNIT (LENGTH_MEASURE( 1.000000000000000100E-005 ), #86, 'distance_accuracy_value', 'NONE');
#53 = ORIENTED_EDGE ( 'NONE', *, *, #55, .F. ) ;
#54 = LINE ( 'NONE', #182, #94 ) ;
#55 = EDGE_CURVE ( 'NONE', #112, #132, #179, .T. ) ;
#56 = PRODUCT_DEFINITION_CONTEXT ( 'detailed design', #120, 'design' ) ;
#57 = DIRECTION ( 'NONE',  ( 0.0000000000000000000, 0.0000000000000000000, -1.000000000000000000 ) ) ;
#58 = CARTESIAN_POINT ( 'NONE',  ( 1151.999999999960000, -737.9999999999849900, 3.999999999994440400 ) ) ;
#59 = ORIENTED_EDGE ( 'NONE', *, *, #135, .T. ) ;
#60 = STYLED_ITEM ( 'NONE', ( #170 ), #12 ) ;
#61 = VECTOR ( 'NONE', #185, 1000.000000000000000 ) ;
#62 = ORIENTED_EDGE ( 'NONE', *, *, #147, .F. ) ;
#63 = CARTESIAN_POINT ( 'NONE',  ( -848.0000000000350200, 262.0000000000150100, 3.999999999994440400 ) ) ;
#64 = LINE ( 'NONE', #19, #75 ) ;
#65 = EDGE_LOOP ( 'NONE', ( #59, #116, #108, #139 ) ) ;
#66 = ADVANCED_FACE ( 'NONE', ( #171 ), #137, .F. ) ;
#67 = CARTESIAN_POINT ( 'NONE',  ( 1151.999999999960200, 262.0000000000150100, 0.9999999999944381200 ) ) ;
#68 = DIRECTION ( 'NONE',  ( 1.000000000000000000, 0.0000000000000000000, -0.0000000000000000000 ) ) ;
#69 = ADVANCED_FACE ( 'NONE', ( #41 ), #184, .T. ) ;
#70 = CARTESIAN_POINT ( 'NONE',  ( -848.0000000000351300, 262.0000000000150100, 0.9999999999944381200 ) ) ;
#71 = EDGE_CURVE ( 'NONE', #38, #112, #196, .T. ) ;
#72 = EDGE_LOOP ( 'NONE', ( #164, #5, #89, #93 ) ) ;
#73 = APPLICATION_PROTOCOL_DEFINITION ( 'draft international standard', 'automotive_design', 1998, #120 ) ;
#74 = CARTESIAN_POINT ( 'NONE',  ( 1151.999999999960200, -737.9999999999849900, 3.999999999994440400 ) ) ;
#75 = VECTOR ( 'NONE', #98, 1000.000000000000000 ) ;
#76 = APPLICATION_PROTOCOL_DEFINITION ( 'draft international standard', 'automotive_design', 1998, #39 ) ;
#77 = AXIS2_PLACEMENT_3D ( 'NONE', #183, #1, #103 ) ;
#78 = EDGE_CURVE ( 'NONE', #186, #197, #174, .T. ) ;
#79 = VECTOR ( 'NONE', #155, 1000.000000000000000 ) ;
#80 = EDGE_LOOP ( 'NONE', ( #193, #158, #11, #128 ) ) ;
#81 = DIRECTION ( 'NONE',  ( 0.0000000000000000000, 1.000000000000000000, -0.0000000000000000000 ) ) ;
#82 = FILL_AREA_STYLE_COLOUR ( '', #119 ) ;
#83 = CARTESIAN_POINT ( 'NONE',  ( -848.0000000000350200, 262.0000000000150100, 3.999999999994440400 ) ) ;
#84 = SHAPE_DEFINITION_REPRESENTATION ( #198, #12 ) ;
#85 = DIRECTION ( 'NONE',  ( 0.0000000000000000000, 0.0000000000000000000, -1.000000000000000000 ) ) ;
#86 =( LENGTH_UNIT ( ) NAMED_UNIT ( * ) SI_UNIT ( .MILLI., .METRE. ) );
#87 = EDGE_CURVE ( 'NONE', #122, #167, #54, .T. ) ;
#88 = FILL_AREA_STYLE ('',( #24 ) ) ;
#89 = ORIENTED_EDGE ( 'NONE', *, *, #2, .F. ) ;
#90 =( NAMED_UNIT ( * ) PLANE_ANGLE_UNIT ( ) SI_UNIT ( $, .RADIAN. ) );
#91 =( NAMED_UNIT ( * ) SI_UNIT ( $, .STERADIAN. ) SOLID_ANGLE_UNIT ( ) );
#92 = MANIFOLD_SOLID_BREP ( 'Importiert1', #134 ) ;
#93 = ORIENTED_EDGE ( 'NONE', *, *, #7, .T. ) ;
#94 = VECTOR ( 'NONE', #181, 1000.000000000000000 ) ;
#95 = ADVANCED_FACE ( 'NONE', ( #15 ), #152, .F. ) ;
#96 = ADVANCED_FACE ( 'NONE', ( #151 ), #124, .F. ) ;
#97 = EDGE_LOOP ( 'NONE', ( #53, #156, #28, #148 ) ) ;
#98 = DIRECTION ( 'NONE',  ( -0.0000000000000000000, 0.0000000000000000000, 1.000000000000000000 ) ) ;
#99 =( NAMED_UNIT ( * ) SI_UNIT ( $, .STERADIAN. ) SOLID_ANGLE_UNIT ( ) );
#100 = VECTOR ( 'NONE', #57, 1000.000000000000000 ) ;
#101 = LINE ( 'NONE', #83, #145 ) ;
#102 = CARTESIAN_POINT ( 'NONE',  ( -848.0000000000350200, 262.0000000000150100, 0.9999999999944381200 ) ) ;
#103 = DIRECTION ( 'NONE',  ( 0.0000000000000000000, -0.0000000000000000000, 1.000000000000000000 ) ) ;
#104 =( LENGTH_UNIT ( ) NAMED_UNIT ( * ) SI_UNIT ( .MILLI., .METRE. ) );
#105 = VECTOR ( 'NONE', #29, 1000.000000000000000 ) ;
#106 = CARTESIAN_POINT ( 'NONE',  ( -848.0000000000350200, -737.9999999999849900, 3.999999999994440400 ) ) ;
#107 = PRODUCT_RELATED_PRODUCT_CATEGORY ( 'part', '', ( #26 ) ) ;
#108 = ORIENTED_EDGE ( 'NONE', *, *, #32, .T. ) ;
#109 = DIRECTION ( 'NONE',  ( 0.0000000000000000000, -0.0000000000000000000, -1.000000000000000000 ) ) ;
#110 = VECTOR ( 'NONE', #153, 1000.000000000000000 ) ;
#111 = AXIS2_PLACEMENT_3D ( 'NONE', #58, #37, #173 ) ;
#112 = VERTEX_POINT ( 'NONE', #67 ) ;
#113 = CARTESIAN_POINT ( 'NONE',  ( 1151.999999999960200, -737.9999999999849900, 0.9999999999944381200 ) ) ;
#114 = DIRECTION ( 'NONE',  ( 0.0000000000000000000, -1.000000000000000000, -0.0000000000000000000 ) ) ;
#115 = LINE ( 'NONE', #146, #61 ) ;
#116 = ORIENTED_EDGE ( 'NONE', *, *, #78, .T. ) ;
#117 = PLANE ( 'NONE',  #111 ) ;
#118 = MECHANICAL_DESIGN_GEOMETRIC_PRESENTATION_REPRESENTATION (  '', ( #187 ), #195 ) ;
#119 = COLOUR_RGB ( '',0.5686274509803921400, 0.6078431372549019100, 0.6470588235294118000 ) ;
#120 = APPLICATION_CONTEXT ( 'automotive_design' ) ;
#121 = ORIENTED_EDGE ( 'NONE', *, *, #135, .F. ) ;
#122 = VERTEX_POINT ( 'NONE', #201 ) ;
#123 = CARTESIAN_POINT ( 'NONE',  ( 1151.999999999960200, -737.9999999999849900, 0.9999999999944381200 ) ) ;
#124 = PLANE ( 'NONE',  #77 ) ;
#125 = DIRECTION ( 'NONE',  ( 1.000000000000000000, 0.0000000000000000000, -0.0000000000000000000 ) ) ;
#126 = PRESENTATION_LAYER_ASSIGNMENT (  '', '', ( #60 ) ) ;
#127 = CARTESIAN_POINT ( 'NONE',  ( 1151.999999999960000, -737.9999999999849900, 3.999999999994440400 ) ) ;
#128 = ORIENTED_EDGE ( 'NONE', *, *, #163, .T. ) ;
#129 = LINE ( 'NONE', #127, #199 ) ;
#130 = ORIENTED_EDGE ( 'NONE', *, *, #55, .T. ) ;
#131 = DIRECTION ( 'NONE',  ( 0.0000000000000000000, 0.0000000000000000000, 1.000000000000000000 ) ) ;
#132 = VERTEX_POINT ( 'NONE', #70 ) ;
#133 = LINE ( 'NONE', #106, #100 ) ;
#134 = CLOSED_SHELL ( 'NONE', ( #66, #95, #154, #150, #96, #69 ) ) ;
#135 = EDGE_CURVE ( 'NONE', #167, #186, #47, .T. ) ;
#136 = ORIENTED_EDGE ( 'NONE', *, *, #23, .F. ) ;
#137 = PLANE ( 'NONE',  #43 ) ;
#138 = DIRECTION ( 'NONE',  ( 0.0000000000000000000, 0.0000000000000000000, 1.000000000000000000 ) ) ;
#139 = ORIENTED_EDGE ( 'NONE', *, *, #87, .T. ) ;
#140 = UNCERTAINTY_MEASURE_WITH_UNIT (LENGTH_MEASURE( 1.000000000000000100E-005 ), #45, 'distance_accuracy_value', 'NONE');
#141 = CARTESIAN_POINT ( 'NONE',  ( -848.0000000000350200, -737.9999999999849900, 3.999999999994440400 ) ) ;
#142 =( GEOMETRIC_REPRESENTATION_CONTEXT ( 3 ) GLOBAL_UNCERTAINTY_ASSIGNED_CONTEXT ( ( #52 ) ) GLOBAL_UNIT_ASSIGNED_CONTEXT ( ( #86, #144, #91 ) ) REPRESENTATION_CONTEXT ( 'NONE', 'WORKASPACE' ) );
#143 = COLOUR_RGB ( '',0.7529411764705882200, 0.7529411764705882200, 0.7529411764705882200 ) ;
#144 =( NAMED_UNIT ( * ) PLANE_ANGLE_UNIT ( ) SI_UNIT ( $, .RADIAN. ) );
#145 = VECTOR ( 'NONE', #114, 1000.000000000000000 ) ;
#146 = CARTESIAN_POINT ( 'NONE',  ( -848.0000000000350200, -737.9999999999849900, 0.9999999999944381200 ) ) ;
#147 = EDGE_CURVE ( 'NONE', #112, #186, #64, .T. ) ;
#148 = ORIENTED_EDGE ( 'NONE', *, *, #7, .F. ) ;
#149 = PRODUCT_DEFINITION ( 'UNKNOWN', '', #157, #56 ) ;
#150 = ADVANCED_FACE ( 'NONE', ( #27 ), #117, .F. ) ;
#151 = FACE_OUTER_BOUND ( 'NONE', #80, .T. ) ;
#152 = PLANE ( 'NONE',  #51 ) ;
#153 = DIRECTION ( 'NONE',  ( -1.000000000000000000, -0.0000000000000000000, 0.0000000000000000000 ) ) ;
#154 = ADVANCED_FACE ( 'NONE', ( #189 ), #165, .F. ) ;
#155 = DIRECTION ( 'NONE',  ( -0.0000000000000000000, 1.000000000000000000, 0.0000000000000000000 ) ) ;
#156 = ORIENTED_EDGE ( 'NONE', *, *, #71, .F. ) ;
#157 = PRODUCT_DEFINITION_FORMATION_WITH_SPECIFIED_SOURCE ( 'ANY', '', #26, .NOT_KNOWN. ) ;
#158 = ORIENTED_EDGE ( 'NONE', *, *, #87, .F. ) ;
#159 = SURFACE_SIDE_STYLE ('',( #21 ) ) ;
#160 = DIRECTION ( 'NONE',  ( 0.0000000000000000000, -1.000000000000000000, 0.0000000000000000000 ) ) ;
#161 = EDGE_LOOP ( 'NONE', ( #175, #121, #136, #17 ) ) ;
#162 = LINE ( 'NONE', #10, #105 ) ;
#163 = EDGE_CURVE ( 'NONE', #22, #38, #115, .T. ) ;
#164 = ORIENTED_EDGE ( 'NONE', *, *, #190, .F. ) ;
#165 = PLANE ( 'NONE',  #36 ) ;
#166 = SURFACE_SIDE_STYLE ('',( #176 ) ) ;
#167 = VERTEX_POINT ( 'NONE', #74 ) ;
#168 = CARTESIAN_POINT ( 'NONE',  ( -848.0000000000350200, 262.0000000000150100, 3.999999999994440400 ) ) ;
#169 = CARTESIAN_POINT ( 'NONE',  ( 1151.999999999960200, 262.0000000000150100, 3.999999999994440400 ) ) ;
#170 = PRESENTATION_STYLE_ASSIGNMENT (( #188 ) ) ;
#171 = FACE_OUTER_BOUND ( 'NONE', #97, .T. ) ;
#172 = CARTESIAN_POINT ( 'NONE',  ( 1151.999999999960000, 262.0000000000150100, 3.999999999994440400 ) ) ;
#173 = DIRECTION ( 'NONE',  ( 0.0000000000000000000, 0.0000000000000000000, 1.000000000000000000 ) ) ;
#174 = LINE ( 'NONE', #14, #33 ) ;
#175 = ORIENTED_EDGE ( 'NONE', *, *, #147, .T. ) ;
#176 = SURFACE_STYLE_FILL_AREA ( #200 ) ;
#177 = DIRECTION ( 'NONE',  ( -0.0000000000000000000, -0.0000000000000000000, 1.000000000000000000 ) ) ;
#178 = MECHANICAL_DESIGN_GEOMETRIC_PRESENTATION_REPRESENTATION (  '', ( #60 ), #142 ) ;
#179 = LINE ( 'NONE', #102, #110 ) ;
#180 = UNCERTAINTY_MEASURE_WITH_UNIT (LENGTH_MEASURE( 1.000000000000000100E-005 ), #104, 'distance_accuracy_value', 'NONE');
#181 = DIRECTION ( 'NONE',  ( 1.000000000000000000, 0.0000000000000000000, -0.0000000000000000000 ) ) ;
#182 = CARTESIAN_POINT ( 'NONE',  ( -848.0000000000350200, -737.9999999999849900, 3.999999999994440400 ) ) ;
#183 = CARTESIAN_POINT ( 'NONE',  ( -848.0000000000350200, -737.9999999999849900, 3.999999999994440400 ) ) ;
#184 = PLANE ( 'NONE',  #20 ) ;
#185 = DIRECTION ( 'NONE',  ( 1.000000000000000000, 0.0000000000000000000, -0.0000000000000000000 ) ) ;
#186 = VERTEX_POINT ( 'NONE', #169 ) ;
#187 = STYLED_ITEM ( 'NONE', ( #191 ), #92 ) ;
#188 = SURFACE_STYLE_USAGE ( .BOTH. , #159 ) ;
#189 = FACE_OUTER_BOUND ( 'NONE', #35, .T. ) ;
#190 = EDGE_CURVE ( 'NONE', #122, #22, #133, .T. ) ;
#191 = PRESENTATION_STYLE_ASSIGNMENT (( #48 ) ) ;
#192 = CARTESIAN_POINT ( 'NONE',  ( -848.0000000000351300, 262.0000000000150100, 3.999999999994440400 ) ) ;
#193 = ORIENTED_EDGE ( 'NONE', *, *, #23, .T. ) ;
#194 = DIRECTION ( 'NONE',  ( 1.000000000000000000, 0.0000000000000000000, 0.0000000000000000000 ) ) ;
#195 =( GEOMETRIC_REPRESENTATION_CONTEXT ( 3 ) GLOBAL_UNCERTAINTY_ASSIGNED_CONTEXT ( ( #140 ) ) GLOBAL_UNIT_ASSIGNED_CONTEXT ( ( #45, #44, #99 ) ) REPRESENTATION_CONTEXT ( 'NONE', 'WORKASPACE' ) );
#196 = LINE ( 'NONE', #123, #79 ) ;
#197 = VERTEX_POINT ( 'NONE', #192 ) ;
#198 = PRODUCT_DEFINITION_SHAPE ( 'NONE', 'NONE',  #149 ) ;
#199 = VECTOR ( 'NONE', #31, 1000.000000000000000 ) ;
#200 = FILL_AREA_STYLE ('',( #82 ) ) ;
#201 = CARTESIAN_POINT ( 'NONE',  ( -848.0000000000350200, -737.9999999999849900, 3.999999999994440400 ) ) ;
#202 = AXIS2_PLACEMENT_3D ( 'NONE', #50, #131, #194 ) ;
ENDSEC;
END-ISO-10303-21;
