ISO-10303-21;
HEADER;
FILE_DESCRIPTION (( 'STEP AP214' ),
    '1' );
FILE_NAME ('6520258',
    '2019-02-01T12:50:04',
    ( '' ),
    ('JUGARD+KÜNSTNER GmbH'),
    'SwSTEP 2.0',
    'SolidWorks 2017',
    '' );
FILE_SCHEMA (( 'AUTOMOTIVE_DESIGN' ));
ENDSEC;

DATA;
#1 = EDGE_LOOP ( 'NONE', ( #65, #39, #172, #14 ) ) ;
#2 = EDGE_CURVE ( 'NONE', #82, #98, #143, .T. ) ;
#3 = VERTEX_POINT ( 'NONE', #67 ) ;
#4 = MANIFOLD_SOLID_BREP ( 'Importiert1', #174 ) ;
#5 = DIRECTION ( 'NONE',  ( -0.0000000000000000000, 0.0000000000000000000, 1.000000000000000000 ) ) ;
#6 = CARTESIAN_POINT ( 'NONE',  ( 1000.000000000000000, 500.0000000000000000, 8.000000000000000000 ) ) ;
#7 =( GEOMETRIC_REPRESENTATION_CONTEXT ( 3 ) GLOBAL_UNCERTAINTY_ASSIGNED_CONTEXT ( ( #140 ) ) GLOBAL_UNIT_ASSIGNED_CONTEXT ( ( #139, #56, #71 ) ) REPRESENTATION_CONTEXT ( 'NONE', 'WORKASPACE' ) );
#8 = CARTESIAN_POINT ( 'NONE',  ( -1000.000000000000000, 500.0000000000000000, 8.000000000000000000 ) ) ;
#9 = VERTEX_POINT ( 'NONE', #6 ) ;
#10 =( LENGTH_UNIT ( ) NAMED_UNIT ( * ) SI_UNIT ( .MILLI., .METRE. ) );
#11 = PRESENTATION_LAYER_ASSIGNMENT (  '', '', ( #110 ) ) ;
#12 = CARTESIAN_POINT ( 'NONE',  ( 1000.000000000000000, -500.0000000000000000, 1.262177448353620000E-027 ) ) ;
#13 = DIRECTION ( 'NONE',  ( 0.0000000000000000000, -1.000000000000000000, 0.0000000000000000000 ) ) ;
#14 = ORIENTED_EDGE ( 'NONE', *, *, #66, .F. ) ;
#15 = VECTOR ( 'NONE', #49, 1000.000000000000000 ) ;
#16 = PRODUCT_DEFINITION_SHAPE ( 'NONE', 'NONE',  #37 ) ;
#17 = ORIENTED_EDGE ( 'NONE', *, *, #58, .T. ) ;
#18 = CARTESIAN_POINT ( 'NONE',  ( 1000.000000000000000, -1.421085471520200100E-013, 8.000000000000000000 ) ) ;
#19 = DIRECTION ( 'NONE',  ( -0.0000000000000000000, 1.000000000000000000, 0.0000000000000000000 ) ) ;
#20 = EDGE_CURVE ( 'NONE', #82, #188, #197, .T. ) ;
#21 = EDGE_LOOP ( 'NONE', ( #166, #104, #90, #89 ) ) ;
#22 = EDGE_LOOP ( 'NONE', ( #79, #119, #132, #47 ) ) ;
#23 = DIRECTION ( 'NONE',  ( 1.000000000000000000, 0.0000000000000000000, 0.0000000000000000000 ) ) ;
#24 = APPLICATION_PROTOCOL_DEFINITION ( 'draft international standard', 'automotive_design', 1998, #40 ) ;
#25 = CARTESIAN_POINT ( 'NONE',  ( -1.421085471520200100E-013, -2.842170943040400200E-013, 1.262177448353620000E-027 ) ) ;
#26 = EDGE_CURVE ( 'NONE', #167, #61, #55, .T. ) ;
#27 = CARTESIAN_POINT ( 'NONE',  ( 0.0000000000000000000, 500.0000000000000000, 1.262177448353620000E-027 ) ) ;
#28 = PLANE ( 'NONE',  #177 ) ;
#29 = CARTESIAN_POINT ( 'NONE',  ( 1000.000000000000000, -500.0000000000000000, 8.000000000000000000 ) ) ;
#30 = VECTOR ( 'NONE', #182, 1000.000000000000000 ) ;
#31 = LINE ( 'NONE', #87, #193 ) ;
#32 = PRESENTATION_LAYER_ASSIGNMENT (  '', '', ( #112 ) ) ;
#33 = CARTESIAN_POINT ( 'NONE',  ( -1000.000000000000000, -1.421085471520200100E-013, 8.000000000000000000 ) ) ;
#34 = FILL_AREA_STYLE ('',( #54 ) ) ;
#35 = EDGE_LOOP ( 'NONE', ( #17, #114, #191, #137 ) ) ;
#36 = CARTESIAN_POINT ( 'NONE',  ( 1000.000000000000000, 500.0000000000000000, 1.262177448353620000E-027 ) ) ;
#37 = PRODUCT_DEFINITION ( 'UNKNOWN', '', #151, #173 ) ;
#38 = SURFACE_SIDE_STYLE ('',( #148 ) ) ;
#39 = ORIENTED_EDGE ( 'NONE', *, *, #53, .F. ) ;
#40 = APPLICATION_CONTEXT ( 'automotive_design' ) ;
#41 =( NAMED_UNIT ( * ) SI_UNIT ( $, .STERADIAN. ) SOLID_ANGLE_UNIT ( ) );
#42 = PRESENTATION_STYLE_ASSIGNMENT (( #105 ) ) ;
#43 = LINE ( 'NONE', #196, #96 ) ;
#44 = UNCERTAINTY_MEASURE_WITH_UNIT (LENGTH_MEASURE( 1.000000000000000100E-005 ), #181, 'distance_accuracy_value', 'NONE');
#45 = FACE_OUTER_BOUND ( 'NONE', #192, .T. ) ;
#46 = LINE ( 'NONE', #147, #109 ) ;
#47 = ORIENTED_EDGE ( 'NONE', *, *, #72, .F. ) ;
#48 = ORIENTED_EDGE ( 'NONE', *, *, #20, .F. ) ;
#49 = DIRECTION ( 'NONE',  ( 0.0000000000000000000, -1.000000000000000000, -0.0000000000000000000 ) ) ;
#50 = UNCERTAINTY_MEASURE_WITH_UNIT (LENGTH_MEASURE( 1.000000000000000100E-005 ), #10, 'distance_accuracy_value', 'NONE');
#51 = DIRECTION ( 'NONE',  ( 1.000000000000000000, 0.0000000000000000000, -0.0000000000000000000 ) ) ;
#52 = DIRECTION ( 'NONE',  ( 0.0000000000000000000, 0.0000000000000000000, 1.000000000000000000 ) ) ;
#53 = EDGE_CURVE ( 'NONE', #98, #9, #46, .T. ) ;
#54 = FILL_AREA_STYLE_COLOUR ( '', #178 ) ;
#55 = LINE ( 'NONE', #146, #158 ) ;
#56 =( NAMED_UNIT ( * ) PLANE_ANGLE_UNIT ( ) SI_UNIT ( $, .RADIAN. ) );
#57 = FILL_AREA_STYLE_COLOUR ( '', #176 ) ;
#58 = EDGE_CURVE ( 'NONE', #188, #167, #43, .T. ) ;
#59 = CARTESIAN_POINT ( 'NONE',  ( -1000.000000000000000, -500.0000000000000000, 1.262177448353620000E-027 ) ) ;
#60 = ORIENTED_EDGE ( 'NONE', *, *, #2, .T. ) ;
#61 = VERTEX_POINT ( 'NONE', #36 ) ;
#62 = EDGE_CURVE ( 'NONE', #9, #153, #70, .T. ) ;
#63 = VECTOR ( 'NONE', #155, 1000.000000000000000 ) ;
#64 = PRODUCT_RELATED_PRODUCT_CATEGORY ( 'part', '', ( #129 ) ) ;
#65 = ORIENTED_EDGE ( 'NONE', *, *, #62, .F. ) ;
#66 = EDGE_CURVE ( 'NONE', #153, #82, #134, .T. ) ;
#67 = CARTESIAN_POINT ( 'NONE',  ( -1000.000000000000000, 500.0000000000000000, 1.262177448353620000E-027 ) ) ;
#68 = PLANE ( 'NONE',  #99 ) ;
#69 =( NAMED_UNIT ( * ) SI_UNIT ( $, .STERADIAN. ) SOLID_ANGLE_UNIT ( ) );
#70 = LINE ( 'NONE', #18, #15 ) ;
#71 =( NAMED_UNIT ( * ) SI_UNIT ( $, .STERADIAN. ) SOLID_ANGLE_UNIT ( ) );
#72 = EDGE_CURVE ( 'NONE', #167, #153, #31, .T. ) ;
#73 = DIRECTION ( 'NONE',  ( 0.0000000000000000000, 0.0000000000000000000, 1.000000000000000000 ) ) ;
#74 = FACE_OUTER_BOUND ( 'NONE', #22, .T. ) ;
#75 = DIRECTION ( 'NONE',  ( 0.0000000000000000000, 1.000000000000000000, 0.0000000000000000000 ) ) ;
#76 = MECHANICAL_DESIGN_GEOMETRIC_PRESENTATION_REPRESENTATION (  '', ( #110 ), #7 ) ;
#77 = DIRECTION ( 'NONE',  ( 1.000000000000000000, 0.0000000000000000000, -0.0000000000000000000 ) ) ;
#78 = VECTOR ( 'NONE', #120, 1000.000000000000000 ) ;
#79 = ORIENTED_EDGE ( 'NONE', *, *, #26, .T. ) ;
#80 = MECHANICAL_DESIGN_GEOMETRIC_PRESENTATION_REPRESENTATION (  '', ( #112 ), #124 ) ;
#81 = LINE ( 'NONE', #186, #63 ) ;
#82 = VERTEX_POINT ( 'NONE', #198 ) ;
#83 = FACE_OUTER_BOUND ( 'NONE', #160, .T. ) ;
#84 = ORIENTED_EDGE ( 'NONE', *, *, #194, .F. ) ;
#85 = DIRECTION ( 'NONE',  ( -0.0000000000000000000, 0.0000000000000000000, -1.000000000000000000 ) ) ;
#86 = DIRECTION ( 'NONE',  ( 0.0000000000000000000, 0.0000000000000000000, -1.000000000000000000 ) ) ;
#87 = CARTESIAN_POINT ( 'NONE',  ( 1000.000000000000000, -500.0000000000000000, 1.262177448353620000E-027 ) ) ;
#88 = CARTESIAN_POINT ( 'NONE',  ( 0.0000000000000000000, -500.0000000000000000, 1.262177448353620000E-027 ) ) ;
#89 = ORIENTED_EDGE ( 'NONE', *, *, #92, .T. ) ;
#90 = ORIENTED_EDGE ( 'NONE', *, *, #53, .T. ) ;
#91 =( GEOMETRIC_REPRESENTATION_CONTEXT ( 3 ) GLOBAL_UNCERTAINTY_ASSIGNED_CONTEXT ( ( #50 ) ) GLOBAL_UNIT_ASSIGNED_CONTEXT ( ( #10, #165, #41 ) ) REPRESENTATION_CONTEXT ( 'NONE', 'WORKASPACE' ) );
#92 = EDGE_CURVE ( 'NONE', #9, #61, #162, .T. ) ;
#93 = DIRECTION ( 'NONE',  ( 0.0000000000000000000, -0.0000000000000000000, -1.000000000000000000 ) ) ;
#94 = SHAPE_DEFINITION_REPRESENTATION ( #16, #108 ) ;
#95 = ORIENTED_EDGE ( 'NONE', *, *, #127, .T. ) ;
#96 = VECTOR ( 'NONE', #101, 1000.000000000000000 ) ;
#97 = FACE_OUTER_BOUND ( 'NONE', #21, .T. ) ;
#98 = VERTEX_POINT ( 'NONE', #8 ) ;
#99 = AXIS2_PLACEMENT_3D ( 'NONE', #149, #52, #77 ) ;
#100 = FACE_OUTER_BOUND ( 'NONE', #35, .T. ) ;
#101 = DIRECTION ( 'NONE',  ( 1.000000000000000000, 0.0000000000000000000, -0.0000000000000000000 ) ) ;
#102 =( NAMED_UNIT ( * ) PLANE_ANGLE_UNIT ( ) SI_UNIT ( $, .RADIAN. ) );
#103 = VECTOR ( 'NONE', #168, 1000.000000000000000 ) ;
#104 = ORIENTED_EDGE ( 'NONE', *, *, #175, .F. ) ;
#105 = SURFACE_STYLE_USAGE ( .BOTH. , #201 ) ;
#106 = DIRECTION ( 'NONE',  ( 0.0000000000000000000, 0.0000000000000000000, 1.000000000000000000 ) ) ;
#107 = ADVANCED_FACE ( 'NONE', ( #74 ), #163, .T. ) ;
#108 = ADVANCED_BREP_SHAPE_REPRESENTATION ( '5HAPL003_CNAJF00', ( #4, #189 ), #91 ) ;
#109 = VECTOR ( 'NONE', #51, 1000.000000000000000 ) ;
#110 = STYLED_ITEM ( 'NONE', ( #42 ), #108 ) ;
#111 = ADVANCED_FACE ( 'NONE', ( #116 ), #68, .T. ) ;
#112 = STYLED_ITEM ( 'NONE', ( #183 ), #4 ) ;
#113 = VECTOR ( 'NONE', #117, 1000.000000000000000 ) ;
#114 = ORIENTED_EDGE ( 'NONE', *, *, #72, .T. ) ;
#115 = CARTESIAN_POINT ( 'NONE',  ( 1000.000000000000000, -1.421085471520200100E-013, 1.262177448353620000E-027 ) ) ;
#116 = FACE_OUTER_BOUND ( 'NONE', #1, .T. ) ;
#117 = DIRECTION ( 'NONE',  ( 0.0000000000000000000, -0.0000000000000000000, -1.000000000000000000 ) ) ;
#118 = DIRECTION ( 'NONE',  ( 1.000000000000000000, 0.0000000000000000000, 0.0000000000000000000 ) ) ;
#119 = ORIENTED_EDGE ( 'NONE', *, *, #92, .F. ) ;
#120 = DIRECTION ( 'NONE',  ( 0.0000000000000000000, -1.000000000000000000, -0.0000000000000000000 ) ) ;
#121 = PLANE ( 'NONE',  #159 ) ;
#122 = PLANE ( 'NONE',  #199 ) ;
#123 = LINE ( 'NONE', #170, #103 ) ;
#124 =( GEOMETRIC_REPRESENTATION_CONTEXT ( 3 ) GLOBAL_UNCERTAINTY_ASSIGNED_CONTEXT ( ( #44 ) ) GLOBAL_UNIT_ASSIGNED_CONTEXT ( ( #181, #102, #69 ) ) REPRESENTATION_CONTEXT ( 'NONE', 'WORKASPACE' ) );
#125 = ORIENTED_EDGE ( 'NONE', *, *, #127, .F. ) ;
#126 = ADVANCED_FACE ( 'NONE', ( #97 ), #122, .T. ) ;
#127 = EDGE_CURVE ( 'NONE', #3, #188, #128, .T. ) ;
#128 = LINE ( 'NONE', #200, #78 ) ;
#129 = PRODUCT ( '5HAPL003_CNAJF00', '5HAPL003_CNAJF00', '', ( #187 ) ) ;
#130 = AXIS2_PLACEMENT_3D ( 'NONE', #115, #23, #86 ) ;
#131 = SURFACE_STYLE_FILL_AREA ( #185 ) ;
#132 = ORIENTED_EDGE ( 'NONE', *, *, #62, .T. ) ;
#133 = CARTESIAN_POINT ( 'NONE',  ( 1000.000000000000000, 500.0000000000000000, 1.262177448353620000E-027 ) ) ;
#134 = LINE ( 'NONE', #164, #156 ) ;
#135 = APPLICATION_PROTOCOL_DEFINITION ( 'draft international standard', 'automotive_design', 1998, #152 ) ;
#136 = PLANE ( 'NONE',  #144 ) ;
#137 = ORIENTED_EDGE ( 'NONE', *, *, #20, .T. ) ;
#138 = DIRECTION ( 'NONE',  ( 1.000000000000000000, 0.0000000000000000000, -0.0000000000000000000 ) ) ;
#139 =( LENGTH_UNIT ( ) NAMED_UNIT ( * ) SI_UNIT ( .MILLI., .METRE. ) );
#140 = UNCERTAINTY_MEASURE_WITH_UNIT (LENGTH_MEASURE( 1.000000000000000100E-005 ), #139, 'distance_accuracy_value', 'NONE');
#141 = ADVANCED_FACE ( 'NONE', ( #45 ), #121, .T. ) ;
#142 = ADVANCED_FACE ( 'NONE', ( #100 ), #136, .T. ) ;
#143 = LINE ( 'NONE', #33, #30 ) ;
#144 = AXIS2_PLACEMENT_3D ( 'NONE', #88, #13, #93 ) ;
#145 = ORIENTED_EDGE ( 'NONE', *, *, #26, .F. ) ;
#146 = CARTESIAN_POINT ( 'NONE',  ( 1000.000000000000000, -2.842170943040400200E-013, 1.262177448353620000E-027 ) ) ;
#147 = CARTESIAN_POINT ( 'NONE',  ( 0.0000000000000000000, 500.0000000000000000, 8.000000000000000000 ) ) ;
#148 = SURFACE_STYLE_FILL_AREA ( #34 ) ;
#149 = CARTESIAN_POINT ( 'NONE',  ( -1.421085471520200100E-013, -2.842170943040400200E-013, 8.000000000000000000 ) ) ;
#150 = DIRECTION ( 'NONE',  ( 0.0000000000000000000, 0.0000000000000000000, 1.000000000000000000 ) ) ;
#151 = PRODUCT_DEFINITION_FORMATION_WITH_SPECIFIED_SOURCE ( 'ANY', '', #129, .NOT_KNOWN. ) ;
#152 = APPLICATION_CONTEXT ( 'automotive_design' ) ;
#153 = VERTEX_POINT ( 'NONE', #29 ) ;
#154 = DIRECTION ( 'NONE',  ( -1.000000000000000000, 0.0000000000000000000, 0.0000000000000000000 ) ) ;
#155 = DIRECTION ( 'NONE',  ( -1.000000000000000000, -0.0000000000000000000, 0.0000000000000000000 ) ) ;
#156 = VECTOR ( 'NONE', #161, 1000.000000000000000 ) ;
#157 = ORIENTED_EDGE ( 'NONE', *, *, #175, .T. ) ;
#158 = VECTOR ( 'NONE', #19, 1000.000000000000000 ) ;
#159 = AXIS2_PLACEMENT_3D ( 'NONE', #169, #154, #106 ) ;
#160 = EDGE_LOOP ( 'NONE', ( #125, #84, #145, #179 ) ) ;
#161 = DIRECTION ( 'NONE',  ( -1.000000000000000000, -0.0000000000000000000, -0.0000000000000000000 ) ) ;
#162 = LINE ( 'NONE', #133, #202 ) ;
#163 = PLANE ( 'NONE',  #130 ) ;
#164 = CARTESIAN_POINT ( 'NONE',  ( 0.0000000000000000000, -500.0000000000000000, 8.000000000000000000 ) ) ;
#165 =( NAMED_UNIT ( * ) PLANE_ANGLE_UNIT ( ) SI_UNIT ( $, .RADIAN. ) );
#166 = ORIENTED_EDGE ( 'NONE', *, *, #194, .T. ) ;
#167 = VERTEX_POINT ( 'NONE', #12 ) ;
#168 = DIRECTION ( 'NONE',  ( -0.0000000000000000000, -0.0000000000000000000, -1.000000000000000000 ) ) ;
#169 = CARTESIAN_POINT ( 'NONE',  ( -1000.000000000000000, -1.421085471520200100E-013, 1.262177448353620000E-027 ) ) ;
#170 = CARTESIAN_POINT ( 'NONE',  ( -1000.000000000000000, 499.9999999999999400, 1.262177448353620000E-027 ) ) ;
#171 = CARTESIAN_POINT ( 'NONE',  ( 0.0000000000000000000, 0.0000000000000000000, 0.0000000000000000000 ) ) ;
#172 = ORIENTED_EDGE ( 'NONE', *, *, #2, .F. ) ;
#173 = PRODUCT_DEFINITION_CONTEXT ( 'detailed design', #152, 'design' ) ;
#174 = CLOSED_SHELL ( 'NONE', ( #190, #142, #141, #126, #107, #111 ) ) ;
#175 = EDGE_CURVE ( 'NONE', #98, #3, #123, .T. ) ;
#176 = COLOUR_RGB ( '',0.7529411764705882200, 0.7529411764705882200, 0.7529411764705882200 ) ;
#177 = AXIS2_PLACEMENT_3D ( 'NONE', #25, #73, #138 ) ;
#178 = COLOUR_RGB ( '',1.000000000000000000, 1.000000000000000000, 1.000000000000000000 ) ;
#179 = ORIENTED_EDGE ( 'NONE', *, *, #58, .F. ) ;
#180 = CARTESIAN_POINT ( 'NONE',  ( -1000.000000000000000, -500.0000000000000000, 1.262177448353620000E-027 ) ) ;
#181 =( LENGTH_UNIT ( ) NAMED_UNIT ( * ) SI_UNIT ( .MILLI., .METRE. ) );
#182 = DIRECTION ( 'NONE',  ( 0.0000000000000000000, 1.000000000000000000, -0.0000000000000000000 ) ) ;
#183 = PRESENTATION_STYLE_ASSIGNMENT (( #195 ) ) ;
#184 = DIRECTION ( 'NONE',  ( 0.0000000000000000000, -0.0000000000000000000, 1.000000000000000000 ) ) ;
#185 = FILL_AREA_STYLE ('',( #57 ) ) ;
#186 = CARTESIAN_POINT ( 'NONE',  ( -1.421085471520200100E-013, 500.0000000000000000, 1.262177448353620000E-027 ) ) ;
#187 = PRODUCT_CONTEXT ( 'NONE', #40, 'mechanical' ) ;
#188 = VERTEX_POINT ( 'NONE', #59 ) ;
#189 = AXIS2_PLACEMENT_3D ( 'NONE', #171, #150, #118 ) ;
#190 = ADVANCED_FACE ( 'NONE', ( #83 ), #28, .F. ) ;
#191 = ORIENTED_EDGE ( 'NONE', *, *, #66, .T. ) ;
#192 = EDGE_LOOP ( 'NONE', ( #95, #48, #60, #157 ) ) ;
#193 = VECTOR ( 'NONE', #5, 1000.000000000000000 ) ;
#194 = EDGE_CURVE ( 'NONE', #61, #3, #81, .T. ) ;
#195 = SURFACE_STYLE_USAGE ( .BOTH. , #38 ) ;
#196 = CARTESIAN_POINT ( 'NONE',  ( -1.421085471520200100E-013, -500.0000000000000000, 1.262177448353620000E-027 ) ) ;
#197 = LINE ( 'NONE', #180, #113 ) ;
#198 = CARTESIAN_POINT ( 'NONE',  ( -1000.000000000000000, -500.0000000000000000, 8.000000000000000000 ) ) ;
#199 = AXIS2_PLACEMENT_3D ( 'NONE', #27, #75, #184 ) ;
#200 = CARTESIAN_POINT ( 'NONE',  ( -1000.000000000000000, -2.842170943040400200E-013, 1.262177448353620000E-027 ) ) ;
#201 = SURFACE_SIDE_STYLE ('',( #131 ) ) ;
#202 = VECTOR ( 'NONE', #85, 1000.000000000000000 ) ;
ENDSEC;
END-ISO-10303-21;
