ISO-10303-21;
HEADER;
FILE_DESCRIPTION (( 'STEP AP214' ),
    '1' );
FILE_NAME ('6520247',
    '2019-02-01T12:48:33',
    ( '' ),
    ('JUGARD+KÜNSTNER GmbH'),
    'SwSTEP 2.0',
    'SolidWorks 2017',
    '' );
FILE_SCHEMA (( 'AUTOMOTIVE_DESIGN' ));
ENDSEC;

DATA;
#1 = VECTOR ( 'NONE', #35, 1000.000000000000000 ) ;
#2 = CARTESIAN_POINT ( 'NONE',  ( -500.0000000000000000, -250.0000000000000000, 3.000000000000000000 ) ) ;
#3 = UNCERTAINTY_MEASURE_WITH_UNIT (LENGTH_MEASURE( 1.000000000000000100E-005 ), #32, 'distance_accuracy_value', 'NONE');
#4 = PRODUCT_DEFINITION_SHAPE ( 'NONE', 'NONE',  #78 ) ;
#5 = EDGE_CURVE ( 'NONE', #131, #203, #219, .T. ) ;
#6 = CARTESIAN_POINT ( 'NONE',  ( 500.0000000000000000, -250.0000000000000000, 3.000000000000000000 ) ) ;
#7 = CARTESIAN_POINT ( 'NONE',  ( -500.0000000000000000, 250.0000000000000000, 0.0000000000000000000 ) ) ;
#8 = LINE ( 'NONE', #160, #186 ) ;
#9 = ORIENTED_EDGE ( 'NONE', *, *, #185, .T. ) ;
#10 = FILL_AREA_STYLE ('',( #107 ) ) ;
#11 =( LENGTH_UNIT ( ) NAMED_UNIT ( * ) SI_UNIT ( .MILLI., .METRE. ) );
#12 = PRODUCT_RELATED_PRODUCT_CATEGORY ( 'part', '', ( #48 ) ) ;
#13 =( NAMED_UNIT ( * ) PLANE_ANGLE_UNIT ( ) SI_UNIT ( $, .RADIAN. ) );
#14 = PLANE ( 'NONE',  #108 ) ;
#15 = DIRECTION ( 'NONE',  ( 1.000000000000000000, 0.0000000000000000000, 0.0000000000000000000 ) ) ;
#16 = FILL_AREA_STYLE_COLOUR ( '', #59 ) ;
#17 = ORIENTED_EDGE ( 'NONE', *, *, #201, .F. ) ;
#18 =( GEOMETRIC_REPRESENTATION_CONTEXT ( 3 ) GLOBAL_UNCERTAINTY_ASSIGNED_CONTEXT ( ( #172 ) ) GLOBAL_UNIT_ASSIGNED_CONTEXT ( ( #122, #137, #23 ) ) REPRESENTATION_CONTEXT ( 'NONE', 'WORKASPACE' ) );
#19 = VERTEX_POINT ( 'NONE', #2 ) ;
#20 = EDGE_CURVE ( 'NONE', #123, #175, #216, .T. ) ;
#21 = SURFACE_STYLE_FILL_AREA ( #53 ) ;
#22 = ORIENTED_EDGE ( 'NONE', *, *, #88, .F. ) ;
#23 =( NAMED_UNIT ( * ) SI_UNIT ( $, .STERADIAN. ) SOLID_ANGLE_UNIT ( ) );
#24 = COLOUR_RGB ( '',0.6274509803921568500, 0.8352941176470588500, 1.000000000000000000 ) ;
#25 = ORIENTED_EDGE ( 'NONE', *, *, #5, .F. ) ;
#26 = DIRECTION ( 'NONE',  ( 1.000000000000000000, 0.0000000000000000000, -0.0000000000000000000 ) ) ;
#27 = UNCERTAINTY_MEASURE_WITH_UNIT (LENGTH_MEASURE( 1.000000000000000100E-005 ), #11, 'distance_accuracy_value', 'NONE');
#28 =( NAMED_UNIT ( * ) SI_UNIT ( $, .STERADIAN. ) SOLID_ANGLE_UNIT ( ) );
#29 = SURFACE_SIDE_STYLE ('',( #170 ) ) ;
#30 = EDGE_CURVE ( 'NONE', #120, #175, #133, .T. ) ;
#31 = ORIENTED_EDGE ( 'NONE', *, *, #165, .F. ) ;
#32 =( LENGTH_UNIT ( ) NAMED_UNIT ( * ) SI_UNIT ( .MILLI., .METRE. ) );
#33 = CARTESIAN_POINT ( 'NONE',  ( 500.0000000000000000, 250.0000000000000000, 3.000000000000000000 ) ) ;
#34 = DIRECTION ( 'NONE',  ( 0.0000000000000000000, -1.000000000000000000, -0.0000000000000000000 ) ) ;
#35 = DIRECTION ( 'NONE',  ( 1.000000000000000000, 0.0000000000000000000, -0.0000000000000000000 ) ) ;
#36 = EDGE_CURVE ( 'NONE', #175, #19, #197, .T. ) ;
#37 = ORIENTED_EDGE ( 'NONE', *, *, #5, .T. ) ;
#38 = APPLICATION_CONTEXT ( 'automotive_design' ) ;
#39 = VECTOR ( 'NONE', #62, 1000.000000000000000 ) ;
#40 = AXIS2_PLACEMENT_3D ( 'NONE', #33, #72, #166 ) ;
#41 = VECTOR ( 'NONE', #209, 1000.000000000000000 ) ;
#42 = VERTEX_POINT ( 'NONE', #6 ) ;
#43 = MECHANICAL_DESIGN_GEOMETRIC_PRESENTATION_REPRESENTATION (  '', ( #99 ), #58 ) ;
#44 = CARTESIAN_POINT ( 'NONE',  ( -500.0000000000000000, -250.0000000000000000, 3.000000000000000000 ) ) ;
#45 = SURFACE_SIDE_STYLE ('',( #195 ) ) ;
#46 = ORIENTED_EDGE ( 'NONE', *, *, #185, .F. ) ;
#47 =( NAMED_UNIT ( * ) PLANE_ANGLE_UNIT ( ) SI_UNIT ( $, .RADIAN. ) );
#48 = PRODUCT ( '6520247_CNAJF00', '6520247_CNAJF00', '', ( #164 ) ) ;
#49 = DIRECTION ( 'NONE',  ( -1.000000000000000000, -0.0000000000000000000, 0.0000000000000000000 ) ) ;
#50 = DIRECTION ( 'NONE',  ( 0.0000000000000000000, 0.0000000000000000000, -1.000000000000000000 ) ) ;
#51 = AXIS2_PLACEMENT_3D ( 'NONE', #44, #104, #26 ) ;
#52 = CARTESIAN_POINT ( 'NONE',  ( -500.0000000000000000, -250.0000000000000000, 3.000000000000000000 ) ) ;
#53 = FILL_AREA_STYLE ('',( #16 ) ) ;
#54 = APPLICATION_PROTOCOL_DEFINITION ( 'draft international standard', 'automotive_design', 1998, #38 ) ;
#55 = LINE ( 'NONE', #182, #1 ) ;
#56 = VECTOR ( 'NONE', #223, 1000.000000000000000 ) ;
#57 = ADVANCED_FACE ( 'NONE', ( #169 ), #89, .F. ) ;
#58 =( GEOMETRIC_REPRESENTATION_CONTEXT ( 3 ) GLOBAL_UNCERTAINTY_ASSIGNED_CONTEXT ( ( #3 ) ) GLOBAL_UNIT_ASSIGNED_CONTEXT ( ( #32, #47, #28 ) ) REPRESENTATION_CONTEXT ( 'NONE', 'WORKASPACE' ) );
#59 = COLOUR_RGB ( '',0.7529411764705882200, 0.7529411764705882200, 0.7529411764705882200 ) ;
#60 = VECTOR ( 'NONE', #177, 1000.000000000000000 ) ;
#61 =( GEOMETRIC_REPRESENTATION_CONTEXT ( 3 ) GLOBAL_UNCERTAINTY_ASSIGNED_CONTEXT ( ( #117 ) ) GLOBAL_UNIT_ASSIGNED_CONTEXT ( ( #147, #75, #212 ) ) REPRESENTATION_CONTEXT ( 'NONE', 'WORKASPACE' ) );
#62 = DIRECTION ( 'NONE',  ( -0.0000000000000000000, 1.000000000000000000, 0.0000000000000000000 ) ) ;
#63 = MECHANICAL_DESIGN_GEOMETRIC_PRESENTATION_REPRESENTATION (  '', ( #213 ), #18 ) ;
#64 = PLANE ( 'NONE',  #51 ) ;
#65 = FACE_OUTER_BOUND ( 'NONE', #70, .T. ) ;
#66 = ORIENTED_EDGE ( 'NONE', *, *, #113, .F. ) ;
#67 =( NAMED_UNIT ( * ) SI_UNIT ( $, .STERADIAN. ) SOLID_ANGLE_UNIT ( ) );
#68 = CARTESIAN_POINT ( 'NONE',  ( -500.0000000000000000, -250.0000000000000000, 0.0000000000000000000 ) ) ;
#69 = PRESENTATION_LAYER_ASSIGNMENT (  '', '', ( #179 ) ) ;
#70 = EDGE_LOOP ( 'NONE', ( #171, #31, #66, #37 ) ) ;
#71 = CARTESIAN_POINT ( 'NONE',  ( 500.0000000000000000, -250.0000000000000000, 3.000000000000000000 ) ) ;
#72 = DIRECTION ( 'NONE',  ( 0.0000000000000000000, -1.000000000000000000, 0.0000000000000000000 ) ) ;
#73 = ADVANCED_FACE ( 'NONE', ( #178 ), #64, .T. ) ;
#74 = AXIS2_PLACEMENT_3D ( 'NONE', #207, #125, #139 ) ;
#75 =( NAMED_UNIT ( * ) PLANE_ANGLE_UNIT ( ) SI_UNIT ( $, .RADIAN. ) );
#76 = EDGE_LOOP ( 'NONE', ( #140, #206, #118, #167 ) ) ;
#77 =( NAMED_UNIT ( * ) SI_UNIT ( $, .STERADIAN. ) SOLID_ANGLE_UNIT ( ) );
#78 = PRODUCT_DEFINITION ( 'UNKNOWN', '', #135, #228 ) ;
#79 = PRESENTATION_STYLE_ASSIGNMENT (( #96 ) ) ;
#80 = ADVANCED_BREP_SHAPE_REPRESENTATION ( '6520247_CNAJF00', ( #134, #192 ), #119 ) ;
#81 = EDGE_LOOP ( 'NONE', ( #132, #85, #162, #9 ) ) ;
#82 = DIRECTION ( 'NONE',  ( -1.000000000000000000, -0.0000000000000000000, -0.0000000000000000000 ) ) ;
#83 = ORIENTED_EDGE ( 'NONE', *, *, #159, .F. ) ;
#84 = MECHANICAL_DESIGN_GEOMETRIC_PRESENTATION_REPRESENTATION (  '', ( #179 ), #218 ) ;
#85 = ORIENTED_EDGE ( 'NONE', *, *, #30, .T. ) ;
#86 = MECHANICAL_DESIGN_GEOMETRIC_PRESENTATION_REPRESENTATION (  '', ( #129 ), #61 ) ;
#87 = SURFACE_STYLE_USAGE ( .BOTH. , #220 ) ;
#88 = EDGE_CURVE ( 'NONE', #95, #131, #8, .T. ) ;
#89 = PLANE ( 'NONE',  #74 ) ;
#90 = LINE ( 'NONE', #52, #100 ) ;
#91 = ORIENTED_EDGE ( 'NONE', *, *, #93, .F. ) ;
#92 = CARTESIAN_POINT ( 'NONE',  ( 500.0000000000000000, 250.0000000000000000, 3.000000000000000000 ) ) ;
#93 = EDGE_CURVE ( 'NONE', #203, #123, #198, .T. ) ;
#94 = LINE ( 'NONE', #204, #60 ) ;
#95 = VERTEX_POINT ( 'NONE', #68 ) ;
#96 = SURFACE_STYLE_USAGE ( .BOTH. , #196 ) ;
#97 = APPLICATION_CONTEXT ( 'automotive_design' ) ;
#98 = PRESENTATION_STYLE_ASSIGNMENT (( #87 ) ) ;
#99 = STYLED_ITEM ( 'NONE', ( #232 ), #116 ) ;
#100 = VECTOR ( 'NONE', #50, 1000.000000000000000 ) ;
#101 = VECTOR ( 'NONE', #217, 1000.000000000000000 ) ;
#102 = AXIS2_PLACEMENT_3D ( 'NONE', #161, #128, #184 ) ;
#103 = SURFACE_STYLE_USAGE ( .BOTH. , #45 ) ;
#104 = DIRECTION ( 'NONE',  ( 0.0000000000000000000, 0.0000000000000000000, 1.000000000000000000 ) ) ;
#105 = EDGE_LOOP ( 'NONE', ( #17, #149, #214, #231 ) ) ;
#106 = CARTESIAN_POINT ( 'NONE',  ( -500.0000000000000000, 250.0000000000000000, 0.0000000000000000000 ) ) ;
#107 = FILL_AREA_STYLE_COLOUR ( '', #24 ) ;
#108 = AXIS2_PLACEMENT_3D ( 'NONE', #71, #145, #226 ) ;
#109 = VECTOR ( 'NONE', #49, 1000.000000000000000 ) ;
#110 = DIRECTION ( 'NONE',  ( 0.0000000000000000000, 1.000000000000000000, -0.0000000000000000000 ) ) ;
#111 = CARTESIAN_POINT ( 'NONE',  ( 500.0000000000000000, -250.0000000000000000, 3.000000000000000000 ) ) ;
#112 = CARTESIAN_POINT ( 'NONE',  ( -500.0000000000000000, -250.0000000000000000, 0.0000000000000000000 ) ) ;
#113 = EDGE_CURVE ( 'NONE', #131, #42, #94, .T. ) ;
#114 = VECTOR ( 'NONE', #34, 1000.000000000000000 ) ;
#115 = COLOUR_RGB ( '',0.8000000000000000400, 0.0000000000000000000, 0.0000000000000000000 ) ;
#116 = ADVANCED_FACE ( 'NONE', ( #174 ), #124, .F. ) ;
#117 = UNCERTAINTY_MEASURE_WITH_UNIT (LENGTH_MEASURE( 1.000000000000000100E-005 ), #147, 'distance_accuracy_value', 'NONE');
#118 = ORIENTED_EDGE ( 'NONE', *, *, #215, .F. ) ;
#119 =( GEOMETRIC_REPRESENTATION_CONTEXT ( 3 ) GLOBAL_UNCERTAINTY_ASSIGNED_CONTEXT ( ( #153 ) ) GLOBAL_UNIT_ASSIGNED_CONTEXT ( ( #143, #13, #77 ) ) REPRESENTATION_CONTEXT ( 'NONE', 'WORKASPACE' ) );
#120 = VERTEX_POINT ( 'NONE', #92 ) ;
#121 = CLOSED_SHELL ( 'NONE', ( #116, #146, #168, #148, #57, #73 ) ) ;
#122 =( LENGTH_UNIT ( ) NAMED_UNIT ( * ) SI_UNIT ( .MILLI., .METRE. ) );
#123 = VERTEX_POINT ( 'NONE', #7 ) ;
#124 = PLANE ( 'NONE',  #224 ) ;
#125 = DIRECTION ( 'NONE',  ( 0.0000000000000000000, 1.000000000000000000, 0.0000000000000000000 ) ) ;
#126 = PLANE ( 'NONE',  #102 ) ;
#127 = CARTESIAN_POINT ( 'NONE',  ( 500.0000000000000000, 250.0000000000000000, 0.0000000000000000000 ) ) ;
#128 = DIRECTION ( 'NONE',  ( 1.000000000000000000, 0.0000000000000000000, 0.0000000000000000000 ) ) ;
#129 = STYLED_ITEM ( 'NONE', ( #79 ), #80 ) ;
#130 = DIRECTION ( 'NONE',  ( 0.0000000000000000000, 0.0000000000000000000, 1.000000000000000000 ) ) ;
#131 = VERTEX_POINT ( 'NONE', #156 ) ;
#132 = ORIENTED_EDGE ( 'NONE', *, *, #165, .T. ) ;
#133 = LINE ( 'NONE', #155, #158 ) ;
#134 = MANIFOLD_SOLID_BREP ( 'Importiert1', #121 ) ;
#135 = PRODUCT_DEFINITION_FORMATION_WITH_SPECIFIED_SOURCE ( 'ANY', '', #48, .NOT_KNOWN. ) ;
#136 = FACE_OUTER_BOUND ( 'NONE', #76, .T. ) ;
#137 =( NAMED_UNIT ( * ) PLANE_ANGLE_UNIT ( ) SI_UNIT ( $, .RADIAN. ) );
#138 =( NAMED_UNIT ( * ) PLANE_ANGLE_UNIT ( ) SI_UNIT ( $, .RADIAN. ) );
#139 = DIRECTION ( 'NONE',  ( 0.0000000000000000000, -0.0000000000000000000, 1.000000000000000000 ) ) ;
#140 = ORIENTED_EDGE ( 'NONE', *, *, #20, .T. ) ;
#141 = DIRECTION ( 'NONE',  ( 1.000000000000000000, 0.0000000000000000000, -0.0000000000000000000 ) ) ;
#142 = PRESENTATION_LAYER_ASSIGNMENT (  '', '', ( #213 ) ) ;
#143 =( LENGTH_UNIT ( ) NAMED_UNIT ( * ) SI_UNIT ( .MILLI., .METRE. ) );
#144 = PRESENTATION_STYLE_ASSIGNMENT (( #221 ) ) ;
#145 = DIRECTION ( 'NONE',  ( -1.000000000000000000, 0.0000000000000000000, 0.0000000000000000000 ) ) ;
#146 = ADVANCED_FACE ( 'NONE', ( #205 ), #126, .F. ) ;
#147 =( LENGTH_UNIT ( ) NAMED_UNIT ( * ) SI_UNIT ( .MILLI., .METRE. ) );
#148 = ADVANCED_FACE ( 'NONE', ( #65 ), #14, .F. ) ;
#149 = ORIENTED_EDGE ( 'NONE', *, *, #36, .F. ) ;
#150 = PRESENTATION_LAYER_ASSIGNMENT (  '', '', ( #99 ) ) ;
#151 = VECTOR ( 'NONE', #110, 1000.000000000000000 ) ;
#152 = ORIENTED_EDGE ( 'NONE', *, *, #201, .T. ) ;
#153 = UNCERTAINTY_MEASURE_WITH_UNIT (LENGTH_MEASURE( 1.000000000000000100E-005 ), #143, 'distance_accuracy_value', 'NONE');
#154 = SHAPE_DEFINITION_REPRESENTATION ( #4, #80 ) ;
#155 = CARTESIAN_POINT ( 'NONE',  ( 500.0000000000000000, 250.0000000000000000, 3.000000000000000000 ) ) ;
#156 = CARTESIAN_POINT ( 'NONE',  ( 500.0000000000000000, -250.0000000000000000, 0.0000000000000000000 ) ) ;
#157 = LINE ( 'NONE', #112, #114 ) ;
#158 = VECTOR ( 'NONE', #82, 1000.000000000000000 ) ;
#159 = EDGE_CURVE ( 'NONE', #123, #95, #157, .T. ) ;
#160 = CARTESIAN_POINT ( 'NONE',  ( -500.0000000000000000, -250.0000000000000000, 0.0000000000000000000 ) ) ;
#161 = CARTESIAN_POINT ( 'NONE',  ( -500.0000000000000000, 250.0000000000000000, 3.000000000000000000 ) ) ;
#162 = ORIENTED_EDGE ( 'NONE', *, *, #36, .T. ) ;
#163 = CARTESIAN_POINT ( 'NONE',  ( 500.0000000000000000, 250.0000000000000000, 3.000000000000000000 ) ) ;
#164 = PRODUCT_CONTEXT ( 'NONE', #38, 'mechanical' ) ;
#165 = EDGE_CURVE ( 'NONE', #42, #120, #199, .T. ) ;
#166 = DIRECTION ( 'NONE',  ( 0.0000000000000000000, -0.0000000000000000000, -1.000000000000000000 ) ) ;
#167 = ORIENTED_EDGE ( 'NONE', *, *, #93, .T. ) ;
#168 = ADVANCED_FACE ( 'NONE', ( #136 ), #194, .F. ) ;
#169 = FACE_OUTER_BOUND ( 'NONE', #200, .T. ) ;
#170 = SURFACE_STYLE_FILL_AREA ( #10 ) ;
#171 = ORIENTED_EDGE ( 'NONE', *, *, #215, .T. ) ;
#172 = UNCERTAINTY_MEASURE_WITH_UNIT (LENGTH_MEASURE( 1.000000000000000100E-005 ), #122, 'distance_accuracy_value', 'NONE');
#173 = CARTESIAN_POINT ( 'NONE',  ( -500.0000000000000000, 250.0000000000000000, 3.000000000000000000 ) ) ;
#174 = FACE_OUTER_BOUND ( 'NONE', #183, .T. ) ;
#175 = VERTEX_POINT ( 'NONE', #210 ) ;
#176 = FILL_AREA_STYLE ('',( #208 ) ) ;
#177 = DIRECTION ( 'NONE',  ( 0.0000000000000000000, 0.0000000000000000000, 1.000000000000000000 ) ) ;
#178 = FACE_OUTER_BOUND ( 'NONE', #81, .T. ) ;
#179 = STYLED_ITEM ( 'NONE', ( #144 ), #134 ) ;
#180 = APPLICATION_PROTOCOL_DEFINITION ( 'draft international standard', 'automotive_design', 1998, #97 ) ;
#181 = COLOUR_RGB ( '',0.8000000000000000400, 0.0000000000000000000, 0.0000000000000000000 ) ;
#182 = CARTESIAN_POINT ( 'NONE',  ( -500.0000000000000000, -250.0000000000000000, 3.000000000000000000 ) ) ;
#183 = EDGE_LOOP ( 'NONE', ( #91, #25, #22, #83 ) ) ;
#184 = DIRECTION ( 'NONE',  ( 0.0000000000000000000, 0.0000000000000000000, -1.000000000000000000 ) ) ;
#185 = EDGE_CURVE ( 'NONE', #19, #42, #55, .T. ) ;
#186 = VECTOR ( 'NONE', #225, 1000.000000000000000 ) ;
#187 = SURFACE_STYLE_FILL_AREA ( #176 ) ;
#188 = CARTESIAN_POINT ( 'NONE',  ( 500.0000000000000000, -250.0000000000000000, 0.0000000000000000000 ) ) ;
#189 = FILL_AREA_STYLE_COLOUR ( '', #181 ) ;
#190 = ORIENTED_EDGE ( 'NONE', *, *, #113, .T. ) ;
#191 = DIRECTION ( 'NONE',  ( 0.0000000000000000000, 0.0000000000000000000, 1.000000000000000000 ) ) ;
#192 = AXIS2_PLACEMENT_3D ( 'NONE', #229, #130, #15 ) ;
#193 = FILL_AREA_STYLE ('',( #189 ) ) ;
#194 = PLANE ( 'NONE',  #40 ) ;
#195 = SURFACE_STYLE_FILL_AREA ( #193 ) ;
#196 = SURFACE_SIDE_STYLE ('',( #21 ) ) ;
#197 = LINE ( 'NONE', #173, #56 ) ;
#198 = LINE ( 'NONE', #106, #109 ) ;
#199 = LINE ( 'NONE', #111, #151 ) ;
#200 = EDGE_LOOP ( 'NONE', ( #190, #46, #152, #211 ) ) ;
#201 = EDGE_CURVE ( 'NONE', #19, #95, #90, .T. ) ;
#202 = CARTESIAN_POINT ( 'NONE',  ( -500.0000000000000000, 250.0000000000000000, 3.000000000000000000 ) ) ;
#203 = VERTEX_POINT ( 'NONE', #127 ) ;
#204 = CARTESIAN_POINT ( 'NONE',  ( 500.0000000000000000, -250.0000000000000000, 3.000000000000000000 ) ) ;
#205 = FACE_OUTER_BOUND ( 'NONE', #105, .T. ) ;
#206 = ORIENTED_EDGE ( 'NONE', *, *, #30, .F. ) ;
#207 = CARTESIAN_POINT ( 'NONE',  ( -500.0000000000000000, -250.0000000000000000, 3.000000000000000000 ) ) ;
#208 = FILL_AREA_STYLE_COLOUR ( '', #115 ) ;
#209 = DIRECTION ( 'NONE',  ( -0.0000000000000000000, 0.0000000000000000000, 1.000000000000000000 ) ) ;
#210 = CARTESIAN_POINT ( 'NONE',  ( -500.0000000000000000, 250.0000000000000000, 3.000000000000000000 ) ) ;
#211 = ORIENTED_EDGE ( 'NONE', *, *, #88, .T. ) ;
#212 =( NAMED_UNIT ( * ) SI_UNIT ( $, .STERADIAN. ) SOLID_ANGLE_UNIT ( ) );
#213 = STYLED_ITEM ( 'NONE', ( #98 ), #73 ) ;
#214 = ORIENTED_EDGE ( 'NONE', *, *, #20, .F. ) ;
#215 = EDGE_CURVE ( 'NONE', #203, #120, #230, .T. ) ;
#216 = LINE ( 'NONE', #202, #101 ) ;
#217 = DIRECTION ( 'NONE',  ( -0.0000000000000000000, -0.0000000000000000000, 1.000000000000000000 ) ) ;
#218 =( GEOMETRIC_REPRESENTATION_CONTEXT ( 3 ) GLOBAL_UNCERTAINTY_ASSIGNED_CONTEXT ( ( #27 ) ) GLOBAL_UNIT_ASSIGNED_CONTEXT ( ( #11, #138, #67 ) ) REPRESENTATION_CONTEXT ( 'NONE', 'WORKASPACE' ) );
#219 = LINE ( 'NONE', #188, #39 ) ;
#220 = SURFACE_SIDE_STYLE ('',( #187 ) ) ;
#221 = SURFACE_STYLE_USAGE ( .BOTH. , #29 ) ;
#222 = CARTESIAN_POINT ( 'NONE',  ( -500.0000000000000000, -250.0000000000000000, 0.0000000000000000000 ) ) ;
#223 = DIRECTION ( 'NONE',  ( 0.0000000000000000000, -1.000000000000000000, -0.0000000000000000000 ) ) ;
#224 = AXIS2_PLACEMENT_3D ( 'NONE', #222, #191, #141 ) ;
#225 = DIRECTION ( 'NONE',  ( 1.000000000000000000, 0.0000000000000000000, -0.0000000000000000000 ) ) ;
#226 = DIRECTION ( 'NONE',  ( 0.0000000000000000000, 0.0000000000000000000, 1.000000000000000000 ) ) ;
#227 = PRESENTATION_LAYER_ASSIGNMENT (  '', '', ( #129 ) ) ;
#228 = PRODUCT_DEFINITION_CONTEXT ( 'detailed design', #97, 'design' ) ;
#229 = CARTESIAN_POINT ( 'NONE',  ( 0.0000000000000000000, 0.0000000000000000000, 0.0000000000000000000 ) ) ;
#230 = LINE ( 'NONE', #163, #41 ) ;
#231 = ORIENTED_EDGE ( 'NONE', *, *, #159, .T. ) ;
#232 = PRESENTATION_STYLE_ASSIGNMENT (( #103 ) ) ;
ENDSEC;
END-ISO-10303-21;
