ISO-10303-21;
HEADER;
FILE_DESCRIPTION (( 'STEP AP214' ),
    '1' );
FILE_NAME ('6520240',
    '2019-02-01T12:48:31',
    ( '' ),
    ('JUGARD+KÜNSTNER GmbH'),
    'SwSTEP 2.0',
    'SolidWorks 2017',
    '' );
FILE_SCHEMA (( 'AUTOMOTIVE_DESIGN' ));
ENDSEC;

DATA;
#1 =( NAMED_UNIT ( * ) SI_UNIT ( $, .STERADIAN. ) SOLID_ANGLE_UNIT ( ) );
#2 = LINE ( 'NONE', #48, #109 ) ;
#3 = LINE ( 'NONE', #187, #202 ) ;
#4 = AXIS2_PLACEMENT_3D ( 'NONE', #149, #13, #133 ) ;
#5 = EDGE_LOOP ( 'NONE', ( #42, #98, #125, #11 ) ) ;
#6 = PRODUCT_CONTEXT ( 'NONE', #155, 'mechanical' ) ;
#7 = EDGE_CURVE ( 'NONE', #23, #74, #184, .T. ) ;
#8 = CARTESIAN_POINT ( 'NONE',  ( 500.0000000000000000, 250.0000000000000000, 0.0000000000000000000 ) ) ;
#9 = ORIENTED_EDGE ( 'NONE', *, *, #108, .F. ) ;
#10 = SURFACE_STYLE_USAGE ( .BOTH. , #89 ) ;
#11 = ORIENTED_EDGE ( 'NONE', *, *, #124, .F. ) ;
#12 = DIRECTION ( 'NONE',  ( 0.0000000000000000000, 0.0000000000000000000, 1.000000000000000000 ) ) ;
#13 = DIRECTION ( 'NONE',  ( 0.0000000000000000000, 1.000000000000000000, 0.0000000000000000000 ) ) ;
#14 = EDGE_CURVE ( 'NONE', #141, #168, #103, .T. ) ;
#15 = AXIS2_PLACEMENT_3D ( 'NONE', #56, #84, #38 ) ;
#16 = LINE ( 'NONE', #177, #152 ) ;
#17 = ORIENTED_EDGE ( 'NONE', *, *, #108, .T. ) ;
#18 = DIRECTION ( 'NONE',  ( -1.000000000000000000, 0.0000000000000000000, 0.0000000000000000000 ) ) ;
#19 = ORIENTED_EDGE ( 'NONE', *, *, #124, .T. ) ;
#20 = DIRECTION ( 'NONE',  ( -0.0000000000000000000, 0.0000000000000000000, 1.000000000000000000 ) ) ;
#21 = DIRECTION ( 'NONE',  ( 1.000000000000000000, 0.0000000000000000000, -0.0000000000000000000 ) ) ;
#22 = PRODUCT_DEFINITION_SHAPE ( 'NONE', 'NONE',  #145 ) ;
#23 = VERTEX_POINT ( 'NONE', #102 ) ;
#24 = ORIENTED_EDGE ( 'NONE', *, *, #86, .F. ) ;
#25 = CARTESIAN_POINT ( 'NONE',  ( -500.0000000000000000, 250.0000000000000000, 3.000000000000000000 ) ) ;
#26 = LINE ( 'NONE', #40, #39 ) ;
#27 = AXIS2_PLACEMENT_3D ( 'NONE', #25, #118, #68 ) ;
#28 =( NAMED_UNIT ( * ) PLANE_ANGLE_UNIT ( ) SI_UNIT ( $, .RADIAN. ) );
#29 = DIRECTION ( 'NONE',  ( 1.000000000000000000, 0.0000000000000000000, -0.0000000000000000000 ) ) ;
#30 = DIRECTION ( 'NONE',  ( 0.0000000000000000000, -1.000000000000000000, -0.0000000000000000000 ) ) ;
#31 = DIRECTION ( 'NONE',  ( 1.000000000000000000, 0.0000000000000000000, -0.0000000000000000000 ) ) ;
#32 = PRODUCT_DEFINITION_FORMATION_WITH_SPECIFIED_SOURCE ( 'ANY', '', #126, .NOT_KNOWN. ) ;
#33 = FACE_OUTER_BOUND ( 'NONE', #91, .T. ) ;
#34 = ORIENTED_EDGE ( 'NONE', *, *, #176, .T. ) ;
#35 = CARTESIAN_POINT ( 'NONE',  ( 500.0000000000000000, -250.0000000000000000, 3.000000000000000000 ) ) ;
#36 = PLANE ( 'NONE',  #41 ) ;
#37 = EDGE_CURVE ( 'NONE', #55, #93, #117, .T. ) ;
#38 = DIRECTION ( 'NONE',  ( 0.0000000000000000000, -0.0000000000000000000, -1.000000000000000000 ) ) ;
#39 = VECTOR ( 'NONE', #196, 1000.000000000000000 ) ;
#40 = CARTESIAN_POINT ( 'NONE',  ( -500.0000000000000000, -250.0000000000000000, 0.0000000000000000000 ) ) ;
#41 = AXIS2_PLACEMENT_3D ( 'NONE', #77, #189, #21 ) ;
#42 = ORIENTED_EDGE ( 'NONE', *, *, #14, .F. ) ;
#43 = MECHANICAL_DESIGN_GEOMETRIC_PRESENTATION_REPRESENTATION (  '', ( #159 ), #49 ) ;
#44 = SHAPE_DEFINITION_REPRESENTATION ( #22, #127 ) ;
#45 = SURFACE_STYLE_FILL_AREA ( #85 ) ;
#46 = CARTESIAN_POINT ( 'NONE',  ( -500.0000000000000000, 250.0000000000000000, 3.000000000000000000 ) ) ;
#47 = ADVANCED_FACE ( 'NONE', ( #33 ), #162, .F. ) ;
#48 = CARTESIAN_POINT ( 'NONE',  ( -500.0000000000000000, -250.0000000000000000, 3.000000000000000000 ) ) ;
#49 =( GEOMETRIC_REPRESENTATION_CONTEXT ( 3 ) GLOBAL_UNCERTAINTY_ASSIGNED_CONTEXT ( ( #144 ) ) GLOBAL_UNIT_ASSIGNED_CONTEXT ( ( #115, #28, #1 ) ) REPRESENTATION_CONTEXT ( 'NONE', 'WORKASPACE' ) );
#50 = DIRECTION ( 'NONE',  ( 1.000000000000000000, 0.0000000000000000000, 0.0000000000000000000 ) ) ;
#51 = VERTEX_POINT ( 'NONE', #119 ) ;
#52 = SURFACE_SIDE_STYLE ('',( #199 ) ) ;
#53 = DIRECTION ( 'NONE',  ( -1.000000000000000000, -0.0000000000000000000, -0.0000000000000000000 ) ) ;
#54 =( GEOMETRIC_REPRESENTATION_CONTEXT ( 3 ) GLOBAL_UNCERTAINTY_ASSIGNED_CONTEXT ( ( #97 ) ) GLOBAL_UNIT_ASSIGNED_CONTEXT ( ( #80, #190, #192 ) ) REPRESENTATION_CONTEXT ( 'NONE', 'WORKASPACE' ) );
#55 = VERTEX_POINT ( 'NONE', #136 ) ;
#56 = CARTESIAN_POINT ( 'NONE',  ( 500.0000000000000000, 250.0000000000000000, 3.000000000000000000 ) ) ;
#57 = CARTESIAN_POINT ( 'NONE',  ( -500.0000000000000000, -250.0000000000000000, 0.0000000000000000000 ) ) ;
#58 = CLOSED_SHELL ( 'NONE', ( #186, #123, #92, #169, #47, #107 ) ) ;
#59 = LINE ( 'NONE', #57, #183 ) ;
#60 = ORIENTED_EDGE ( 'NONE', *, *, #7, .F. ) ;
#61 = EDGE_CURVE ( 'NONE', #51, #193, #16, .T. ) ;
#62 = SURFACE_STYLE_USAGE ( .BOTH. , #52 ) ;
#63 = PRESENTATION_STYLE_ASSIGNMENT (( #10 ) ) ;
#64 = APPLICATION_PROTOCOL_DEFINITION ( 'draft international standard', 'automotive_design', 1998, #155 ) ;
#65 = STYLED_ITEM ( 'NONE', ( #66 ), #127 ) ;
#66 = PRESENTATION_STYLE_ASSIGNMENT (( #62 ) ) ;
#67 = EDGE_CURVE ( 'NONE', #93, #23, #59, .T. ) ;
#68 = DIRECTION ( 'NONE',  ( 0.0000000000000000000, 0.0000000000000000000, -1.000000000000000000 ) ) ;
#69 = PLANE ( 'NONE',  #15 ) ;
#70 = LINE ( 'NONE', #179, #167 ) ;
#71 = PLANE ( 'NONE',  #27 ) ;
#72 = VECTOR ( 'NONE', #101, 1000.000000000000000 ) ;
#73 = VECTOR ( 'NONE', #166, 1000.000000000000000 ) ;
#74 = VERTEX_POINT ( 'NONE', #180 ) ;
#75 = DIRECTION ( 'NONE',  ( 0.0000000000000000000, 0.0000000000000000000, 1.000000000000000000 ) ) ;
#76 = LINE ( 'NONE', #116, #111 ) ;
#77 = CARTESIAN_POINT ( 'NONE',  ( -500.0000000000000000, -250.0000000000000000, 0.0000000000000000000 ) ) ;
#78 = AXIS2_PLACEMENT_3D ( 'NONE', #129, #164, #29 ) ;
#79 = DIRECTION ( 'NONE',  ( 0.0000000000000000000, 0.0000000000000000000, 1.000000000000000000 ) ) ;
#80 =( LENGTH_UNIT ( ) NAMED_UNIT ( * ) SI_UNIT ( .MILLI., .METRE. ) );
#81 = VECTOR ( 'NONE', #105, 1000.000000000000000 ) ;
#82 = EDGE_CURVE ( 'NONE', #193, #55, #76, .T. ) ;
#83 = UNCERTAINTY_MEASURE_WITH_UNIT (LENGTH_MEASURE( 1.000000000000000100E-005 ), #110, 'distance_accuracy_value', 'NONE');
#84 = DIRECTION ( 'NONE',  ( 0.0000000000000000000, -1.000000000000000000, 0.0000000000000000000 ) ) ;
#85 = FILL_AREA_STYLE ('',( #148 ) ) ;
#86 = EDGE_CURVE ( 'NONE', #74, #51, #139, .T. ) ;
#87 = FACE_OUTER_BOUND ( 'NONE', #132, .T. ) ;
#88 = ORIENTED_EDGE ( 'NONE', *, *, #67, .T. ) ;
#89 = SURFACE_SIDE_STYLE ('',( #45 ) ) ;
#90 = ORIENTED_EDGE ( 'NONE', *, *, #82, .F. ) ;
#91 = EDGE_LOOP ( 'NONE', ( #140, #182, #175, #88 ) ) ;
#92 = ADVANCED_FACE ( 'NONE', ( #188 ), #69, .F. ) ;
#93 = VERTEX_POINT ( 'NONE', #99 ) ;
#94 = APPLICATION_PROTOCOL_DEFINITION ( 'draft international standard', 'automotive_design', 1998, #112 ) ;
#95 = ORIENTED_EDGE ( 'NONE', *, *, #61, .T. ) ;
#96 = FILL_AREA_STYLE ('',( #172 ) ) ;
#97 = UNCERTAINTY_MEASURE_WITH_UNIT (LENGTH_MEASURE( 1.000000000000000100E-005 ), #80, 'distance_accuracy_value', 'NONE');
#98 = ORIENTED_EDGE ( 'NONE', *, *, #156, .F. ) ;
#99 = CARTESIAN_POINT ( 'NONE',  ( -500.0000000000000000, -250.0000000000000000, 0.0000000000000000000 ) ) ;
#100 = ORIENTED_EDGE ( 'NONE', *, *, #201, .T. ) ;
#101 = DIRECTION ( 'NONE',  ( 0.0000000000000000000, 0.0000000000000000000, -1.000000000000000000 ) ) ;
#102 = CARTESIAN_POINT ( 'NONE',  ( 500.0000000000000000, -250.0000000000000000, 0.0000000000000000000 ) ) ;
#103 = LINE ( 'NONE', #174, #120 ) ;
#104 = ORIENTED_EDGE ( 'NONE', *, *, #156, .T. ) ;
#105 = DIRECTION ( 'NONE',  ( -0.0000000000000000000, 1.000000000000000000, 0.0000000000000000000 ) ) ;
#106 = LINE ( 'NONE', #198, #81 ) ;
#107 = ADVANCED_FACE ( 'NONE', ( #87 ), #147, .T. ) ;
#108 = EDGE_CURVE ( 'NONE', #168, #193, #70, .T. ) ;
#109 = VECTOR ( 'NONE', #142, 1000.000000000000000 ) ;
#110 =( LENGTH_UNIT ( ) NAMED_UNIT ( * ) SI_UNIT ( .MILLI., .METRE. ) );
#111 = VECTOR ( 'NONE', #30, 1000.000000000000000 ) ;
#112 = APPLICATION_CONTEXT ( 'automotive_design' ) ;
#113 = EDGE_LOOP ( 'NONE', ( #171, #90, #9, #19 ) ) ;
#114 = MECHANICAL_DESIGN_GEOMETRIC_PRESENTATION_REPRESENTATION (  '', ( #65 ), #191 ) ;
#115 =( LENGTH_UNIT ( ) NAMED_UNIT ( * ) SI_UNIT ( .MILLI., .METRE. ) );
#116 = CARTESIAN_POINT ( 'NONE',  ( -500.0000000000000000, 250.0000000000000000, 3.000000000000000000 ) ) ;
#117 = LINE ( 'NONE', #135, #72 ) ;
#118 = DIRECTION ( 'NONE',  ( 1.000000000000000000, 0.0000000000000000000, 0.0000000000000000000 ) ) ;
#119 = CARTESIAN_POINT ( 'NONE',  ( 500.0000000000000000, 250.0000000000000000, 3.000000000000000000 ) ) ;
#120 = VECTOR ( 'NONE', #194, 1000.000000000000000 ) ;
#121 = ORIENTED_EDGE ( 'NONE', *, *, #61, .F. ) ;
#122 = PLANE ( 'NONE',  #178 ) ;
#123 = ADVANCED_FACE ( 'NONE', ( #163 ), #71, .F. ) ;
#124 = EDGE_CURVE ( 'NONE', #168, #93, #26, .T. ) ;
#125 = ORIENTED_EDGE ( 'NONE', *, *, #67, .F. ) ;
#126 = PRODUCT ( '6520240_CNAJF00', '6520240_CNAJF00', '', ( #6 ) ) ;
#127 = ADVANCED_BREP_SHAPE_REPRESENTATION ( '6520240_CNAJF00', ( #134, #151 ), #54 ) ;
#128 = CARTESIAN_POINT ( 'NONE',  ( 0.0000000000000000000, 0.0000000000000000000, 0.0000000000000000000 ) ) ;
#129 = CARTESIAN_POINT ( 'NONE',  ( -500.0000000000000000, -250.0000000000000000, 3.000000000000000000 ) ) ;
#130 = CARTESIAN_POINT ( 'NONE',  ( 500.0000000000000000, -250.0000000000000000, 3.000000000000000000 ) ) ;
#131 = COLOUR_RGB ( '',0.7529411764705882200, 0.7529411764705882200, 0.7529411764705882200 ) ;
#132 = EDGE_LOOP ( 'NONE', ( #137, #95, #158, #100 ) ) ;
#133 = DIRECTION ( 'NONE',  ( 0.0000000000000000000, -0.0000000000000000000, 1.000000000000000000 ) ) ;
#134 = MANIFOLD_SOLID_BREP ( 'Importiert1', #58 ) ;
#135 = CARTESIAN_POINT ( 'NONE',  ( -500.0000000000000000, -250.0000000000000000, 3.000000000000000000 ) ) ;
#136 = CARTESIAN_POINT ( 'NONE',  ( -500.0000000000000000, -250.0000000000000000, 3.000000000000000000 ) ) ;
#137 = ORIENTED_EDGE ( 'NONE', *, *, #86, .T. ) ;
#138 = PRESENTATION_LAYER_ASSIGNMENT (  '', '', ( #65 ) ) ;
#139 = LINE ( 'NONE', #197, #73 ) ;
#140 = ORIENTED_EDGE ( 'NONE', *, *, #7, .T. ) ;
#141 = VERTEX_POINT ( 'NONE', #8 ) ;
#142 = DIRECTION ( 'NONE',  ( 1.000000000000000000, 0.0000000000000000000, -0.0000000000000000000 ) ) ;
#143 = COLOUR_RGB ( '',0.6274509803921568500, 0.8352941176470588500, 1.000000000000000000 ) ;
#144 = UNCERTAINTY_MEASURE_WITH_UNIT (LENGTH_MEASURE( 1.000000000000000100E-005 ), #115, 'distance_accuracy_value', 'NONE');
#145 = PRODUCT_DEFINITION ( 'UNKNOWN', '', #32, #160 ) ;
#146 = VECTOR ( 'NONE', #12, 1000.000000000000000 ) ;
#147 = PLANE ( 'NONE',  #78 ) ;
#148 = FILL_AREA_STYLE_COLOUR ( '', #143 ) ;
#149 = CARTESIAN_POINT ( 'NONE',  ( -500.0000000000000000, -250.0000000000000000, 3.000000000000000000 ) ) ;
#150 = FACE_OUTER_BOUND ( 'NONE', #165, .T. ) ;
#151 = AXIS2_PLACEMENT_3D ( 'NONE', #128, #79, #50 ) ;
#152 = VECTOR ( 'NONE', #53, 1000.000000000000000 ) ;
#153 = CARTESIAN_POINT ( 'NONE',  ( -500.0000000000000000, 250.0000000000000000, 0.0000000000000000000 ) ) ;
#154 = FACE_OUTER_BOUND ( 'NONE', #5, .T. ) ;
#155 = APPLICATION_CONTEXT ( 'automotive_design' ) ;
#156 = EDGE_CURVE ( 'NONE', #23, #141, #106, .T. ) ;
#157 =( NAMED_UNIT ( * ) PLANE_ANGLE_UNIT ( ) SI_UNIT ( $, .RADIAN. ) );
#158 = ORIENTED_EDGE ( 'NONE', *, *, #82, .T. ) ;
#159 = STYLED_ITEM ( 'NONE', ( #63 ), #134 ) ;
#160 = PRODUCT_DEFINITION_CONTEXT ( 'detailed design', #112, 'design' ) ;
#161 = DIRECTION ( 'NONE',  ( -0.0000000000000000000, -0.0000000000000000000, 1.000000000000000000 ) ) ;
#162 = PLANE ( 'NONE',  #4 ) ;
#163 = FACE_OUTER_BOUND ( 'NONE', #113, .T. ) ;
#164 = DIRECTION ( 'NONE',  ( 0.0000000000000000000, 0.0000000000000000000, 1.000000000000000000 ) ) ;
#165 = EDGE_LOOP ( 'NONE', ( #34, #24, #60, #104 ) ) ;
#166 = DIRECTION ( 'NONE',  ( 0.0000000000000000000, 1.000000000000000000, -0.0000000000000000000 ) ) ;
#167 = VECTOR ( 'NONE', #161, 1000.000000000000000 ) ;
#168 = VERTEX_POINT ( 'NONE', #153 ) ;
#169 = ADVANCED_FACE ( 'NONE', ( #150 ), #122, .F. ) ;
#170 = PRESENTATION_LAYER_ASSIGNMENT (  '', '', ( #159 ) ) ;
#171 = ORIENTED_EDGE ( 'NONE', *, *, #37, .F. ) ;
#172 = FILL_AREA_STYLE_COLOUR ( '', #131 ) ;
#173 =( NAMED_UNIT ( * ) SI_UNIT ( $, .STERADIAN. ) SOLID_ANGLE_UNIT ( ) );
#174 = CARTESIAN_POINT ( 'NONE',  ( -500.0000000000000000, 250.0000000000000000, 0.0000000000000000000 ) ) ;
#175 = ORIENTED_EDGE ( 'NONE', *, *, #37, .T. ) ;
#176 = EDGE_CURVE ( 'NONE', #141, #51, #3, .T. ) ;
#177 = CARTESIAN_POINT ( 'NONE',  ( 500.0000000000000000, 250.0000000000000000, 3.000000000000000000 ) ) ;
#178 = AXIS2_PLACEMENT_3D ( 'NONE', #35, #18, #75 ) ;
#179 = CARTESIAN_POINT ( 'NONE',  ( -500.0000000000000000, 250.0000000000000000, 3.000000000000000000 ) ) ;
#180 = CARTESIAN_POINT ( 'NONE',  ( 500.0000000000000000, -250.0000000000000000, 3.000000000000000000 ) ) ;
#181 = PRODUCT_RELATED_PRODUCT_CATEGORY ( 'part', '', ( #126 ) ) ;
#182 = ORIENTED_EDGE ( 'NONE', *, *, #201, .F. ) ;
#183 = VECTOR ( 'NONE', #31, 1000.000000000000000 ) ;
#184 = LINE ( 'NONE', #130, #146 ) ;
#185 = EDGE_LOOP ( 'NONE', ( #17, #121, #195, #200 ) ) ;
#186 = ADVANCED_FACE ( 'NONE', ( #154 ), #36, .F. ) ;
#187 = CARTESIAN_POINT ( 'NONE',  ( 500.0000000000000000, 250.0000000000000000, 3.000000000000000000 ) ) ;
#188 = FACE_OUTER_BOUND ( 'NONE', #185, .T. ) ;
#189 = DIRECTION ( 'NONE',  ( 0.0000000000000000000, 0.0000000000000000000, 1.000000000000000000 ) ) ;
#190 =( NAMED_UNIT ( * ) PLANE_ANGLE_UNIT ( ) SI_UNIT ( $, .RADIAN. ) );
#191 =( GEOMETRIC_REPRESENTATION_CONTEXT ( 3 ) GLOBAL_UNCERTAINTY_ASSIGNED_CONTEXT ( ( #83 ) ) GLOBAL_UNIT_ASSIGNED_CONTEXT ( ( #110, #157, #173 ) ) REPRESENTATION_CONTEXT ( 'NONE', 'WORKASPACE' ) );
#192 =( NAMED_UNIT ( * ) SI_UNIT ( $, .STERADIAN. ) SOLID_ANGLE_UNIT ( ) );
#193 = VERTEX_POINT ( 'NONE', #46 ) ;
#194 = DIRECTION ( 'NONE',  ( -1.000000000000000000, -0.0000000000000000000, 0.0000000000000000000 ) ) ;
#195 = ORIENTED_EDGE ( 'NONE', *, *, #176, .F. ) ;
#196 = DIRECTION ( 'NONE',  ( 0.0000000000000000000, -1.000000000000000000, -0.0000000000000000000 ) ) ;
#197 = CARTESIAN_POINT ( 'NONE',  ( 500.0000000000000000, -250.0000000000000000, 3.000000000000000000 ) ) ;
#198 = CARTESIAN_POINT ( 'NONE',  ( 500.0000000000000000, -250.0000000000000000, 0.0000000000000000000 ) ) ;
#199 = SURFACE_STYLE_FILL_AREA ( #96 ) ;
#200 = ORIENTED_EDGE ( 'NONE', *, *, #14, .T. ) ;
#201 = EDGE_CURVE ( 'NONE', #55, #74, #2, .T. ) ;
#202 = VECTOR ( 'NONE', #20, 1000.000000000000000 ) ;
ENDSEC;
END-ISO-10303-21;
