ISO-10303-21;
HEADER;
FILE_DESCRIPTION (( 'STEP AP214' ),
    '1' );
FILE_NAME ('6520224',
    '2019-02-01T12:48:27',
    ( '' ),
    ('JUGARD+KÜNSTNER GmbH'),
    'SwSTEP 2.0',
    'SolidWorks 2017',
    '' );
FILE_SCHEMA (( 'AUTOMOTIVE_DESIGN' ));
ENDSEC;

DATA;
#1 = STYLED_ITEM ( 'NONE', ( #93 ), #40 ) ;
#2 = DIRECTION ( 'NONE',  ( 1.000000000000000000, 0.0000000000000000000, -0.0000000000000000000 ) ) ;
#3 =( NAMED_UNIT ( * ) SI_UNIT ( $, .STERADIAN. ) SOLID_ANGLE_UNIT ( ) );
#4 = CARTESIAN_POINT ( 'NONE',  ( 500.0000000000000000, -250.0000000000000000, 1.000000000000000000 ) ) ;
#5 = VECTOR ( 'NONE', #184, 1000.000000000000000 ) ;
#6 = VERTEX_POINT ( 'NONE', #180 ) ;
#7 = UNCERTAINTY_MEASURE_WITH_UNIT (LENGTH_MEASURE( 1.000000000000000100E-005 ), #12, 'distance_accuracy_value', 'NONE');
#8 = CARTESIAN_POINT ( 'NONE',  ( -500.0000000000000000, 250.0000000000000000, 1.000000000000000000 ) ) ;
#9 = VERTEX_POINT ( 'NONE', #148 ) ;
#10 = CARTESIAN_POINT ( 'NONE',  ( -500.0000000000000000, -250.0000000000000000, 1.000000000000000000 ) ) ;
#11 = ORIENTED_EDGE ( 'NONE', *, *, #157, .T. ) ;
#12 =( LENGTH_UNIT ( ) NAMED_UNIT ( * ) SI_UNIT ( .MILLI., .METRE. ) );
#13 = ORIENTED_EDGE ( 'NONE', *, *, #139, .F. ) ;
#14 =( NAMED_UNIT ( * ) PLANE_ANGLE_UNIT ( ) SI_UNIT ( $, .RADIAN. ) );
#15 = FILL_AREA_STYLE ('',( #115 ) ) ;
#16 = FACE_OUTER_BOUND ( 'NONE', #43, .T. ) ;
#17 = EDGE_CURVE ( 'NONE', #193, #72, #201, .T. ) ;
#18 = CARTESIAN_POINT ( 'NONE',  ( -500.0000000000000000, -250.0000000000000000, -7.000000000000000000 ) ) ;
#19 = DIRECTION ( 'NONE',  ( 1.000000000000000000, 0.0000000000000000000, 0.0000000000000000000 ) ) ;
#20 = CARTESIAN_POINT ( 'NONE',  ( -500.0000000000000000, -250.0000000000000000, 1.000000000000000000 ) ) ;
#21 = PLANE ( 'NONE',  #63 ) ;
#22 = EDGE_CURVE ( 'NONE', #67, #193, #38, .T. ) ;
#23 = VECTOR ( 'NONE', #50, 1000.000000000000000 ) ;
#24 = ORIENTED_EDGE ( 'NONE', *, *, #22, .T. ) ;
#25 = VECTOR ( 'NONE', #163, 1000.000000000000000 ) ;
#26 = DIRECTION ( 'NONE',  ( 0.0000000000000000000, 0.0000000000000000000, 1.000000000000000000 ) ) ;
#27 = AXIS2_PLACEMENT_3D ( 'NONE', #119, #151, #42 ) ;
#28 = LINE ( 'NONE', #137, #123 ) ;
#29 = ORIENTED_EDGE ( 'NONE', *, *, #17, .T. ) ;
#30 = UNCERTAINTY_MEASURE_WITH_UNIT (LENGTH_MEASURE( 1.000000000000000100E-005 ), #36, 'distance_accuracy_value', 'NONE');
#31 =( NAMED_UNIT ( * ) SI_UNIT ( $, .STERADIAN. ) SOLID_ANGLE_UNIT ( ) );
#32 = PRODUCT_DEFINITION_SHAPE ( 'NONE', 'NONE',  #98 ) ;
#33 = APPLICATION_CONTEXT ( 'automotive_design' ) ;
#34 = PRODUCT_CONTEXT ( 'NONE', #33, 'mechanical' ) ;
#35 = AXIS2_PLACEMENT_3D ( 'NONE', #10, #126, #82 ) ;
#36 =( LENGTH_UNIT ( ) NAMED_UNIT ( * ) SI_UNIT ( .MILLI., .METRE. ) );
#37 = CARTESIAN_POINT ( 'NONE',  ( 500.0000000000000000, 250.0000000000000000, 1.000000000000000000 ) ) ;
#38 = LINE ( 'NONE', #69, #25 ) ;
#39 = ORIENTED_EDGE ( 'NONE', *, *, #157, .F. ) ;
#40 = ADVANCED_BREP_SHAPE_REPRESENTATION ( '6520224_CNAJF00', ( #104, #197 ), #146 ) ;
#41 = LINE ( 'NONE', #18, #152 ) ;
#42 = DIRECTION ( 'NONE',  ( 0.0000000000000000000, 0.0000000000000000000, 1.000000000000000000 ) ) ;
#43 = EDGE_LOOP ( 'NONE', ( #198, #13, #83, #62 ) ) ;
#44 = AXIS2_PLACEMENT_3D ( 'NONE', #195, #26, #64 ) ;
#45 = EDGE_LOOP ( 'NONE', ( #113, #127, #65, #48 ) ) ;
#46 = ORIENTED_EDGE ( 'NONE', *, *, #191, .T. ) ;
#47 = AXIS2_PLACEMENT_3D ( 'NONE', #140, #121, #59 ) ;
#48 = ORIENTED_EDGE ( 'NONE', *, *, #92, .T. ) ;
#49 = SURFACE_STYLE_USAGE ( .BOTH. , #129 ) ;
#50 = DIRECTION ( 'NONE',  ( 1.000000000000000000, 0.0000000000000000000, -0.0000000000000000000 ) ) ;
#51 =( GEOMETRIC_REPRESENTATION_CONTEXT ( 3 ) GLOBAL_UNCERTAINTY_ASSIGNED_CONTEXT ( ( #106 ) ) GLOBAL_UNIT_ASSIGNED_CONTEXT ( ( #170, #168, #3 ) ) REPRESENTATION_CONTEXT ( 'NONE', 'WORKASPACE' ) );
#52 = FACE_OUTER_BOUND ( 'NONE', #124, .T. ) ;
#53 = ORIENTED_EDGE ( 'NONE', *, *, #128, .F. ) ;
#54 = DIRECTION ( 'NONE',  ( -1.000000000000000000, -0.0000000000000000000, -0.0000000000000000000 ) ) ;
#55 = FILL_AREA_STYLE_COLOUR ( '', #112 ) ;
#56 = EDGE_CURVE ( 'NONE', #6, #72, #171, .T. ) ;
#57 = ORIENTED_EDGE ( 'NONE', *, *, #92, .F. ) ;
#58 = PLANE ( 'NONE',  #47 ) ;
#59 = DIRECTION ( 'NONE',  ( 0.0000000000000000000, -0.0000000000000000000, -1.000000000000000000 ) ) ;
#60 = FACE_OUTER_BOUND ( 'NONE', #61, .T. ) ;
#61 = EDGE_LOOP ( 'NONE', ( #116, #153, #53, #11 ) ) ;
#62 = ORIENTED_EDGE ( 'NONE', *, *, #90, .T. ) ;
#63 = AXIS2_PLACEMENT_3D ( 'NONE', #110, #122, #150 ) ;
#64 = DIRECTION ( 'NONE',  ( 1.000000000000000000, 0.0000000000000000000, -0.0000000000000000000 ) ) ;
#65 = ORIENTED_EDGE ( 'NONE', *, *, #56, .F. ) ;
#66 = CARTESIAN_POINT ( 'NONE',  ( 500.0000000000000000, 250.0000000000000000, 1.000000000000000000 ) ) ;
#67 = VERTEX_POINT ( 'NONE', #199 ) ;
#68 = PRESENTATION_LAYER_ASSIGNMENT (  '', '', ( #1 ) ) ;
#69 = CARTESIAN_POINT ( 'NONE',  ( 500.0000000000000000, -250.0000000000000000, 1.000000000000000000 ) ) ;
#70 =( NAMED_UNIT ( * ) SI_UNIT ( $, .STERADIAN. ) SOLID_ANGLE_UNIT ( ) );
#71 = CARTESIAN_POINT ( 'NONE',  ( 500.0000000000000000, 250.0000000000000000, -7.000000000000000000 ) ) ;
#72 = VERTEX_POINT ( 'NONE', #189 ) ;
#73 = DIRECTION ( 'NONE',  ( -0.0000000000000000000, 1.000000000000000000, 0.0000000000000000000 ) ) ;
#74 = VECTOR ( 'NONE', #54, 1000.000000000000000 ) ;
#75 = CLOSED_SHELL ( 'NONE', ( #196, #99, #142, #111, #155, #194 ) ) ;
#76 = CARTESIAN_POINT ( 'NONE',  ( 500.0000000000000000, -250.0000000000000000, -7.000000000000000000 ) ) ;
#77 = DIRECTION ( 'NONE',  ( -0.0000000000000000000, 0.0000000000000000000, 1.000000000000000000 ) ) ;
#78 = VECTOR ( 'NONE', #109, 1000.000000000000000 ) ;
#79 = AXIS2_PLACEMENT_3D ( 'NONE', #202, #19, #136 ) ;
#80 = PLANE ( 'NONE',  #44 ) ;
#81 = SURFACE_STYLE_FILL_AREA ( #15 ) ;
#82 = DIRECTION ( 'NONE',  ( 1.000000000000000000, 0.0000000000000000000, -0.0000000000000000000 ) ) ;
#83 = ORIENTED_EDGE ( 'NONE', *, *, #200, .T. ) ;
#84 = CARTESIAN_POINT ( 'NONE',  ( -500.0000000000000000, -250.0000000000000000, 1.000000000000000000 ) ) ;
#85 = DIRECTION ( 'NONE',  ( 0.0000000000000000000, 0.0000000000000000000, 1.000000000000000000 ) ) ;
#86 = LINE ( 'NONE', #4, #78 ) ;
#87 = DIRECTION ( 'NONE',  ( -0.0000000000000000000, -0.0000000000000000000, 1.000000000000000000 ) ) ;
#88 = PLANE ( 'NONE',  #27 ) ;
#89 = PRESENTATION_STYLE_ASSIGNMENT (( #192 ) ) ;
#90 = EDGE_CURVE ( 'NONE', #167, #165, #173, .T. ) ;
#91 = DIRECTION ( 'NONE',  ( 0.0000000000000000000, -1.000000000000000000, -0.0000000000000000000 ) ) ;
#92 = EDGE_CURVE ( 'NONE', #6, #167, #41, .T. ) ;
#93 = PRESENTATION_STYLE_ASSIGNMENT (( #49 ) ) ;
#94 = PRODUCT_DEFINITION_CONTEXT ( 'detailed design', #130, 'design' ) ;
#95 = MECHANICAL_DESIGN_GEOMETRIC_PRESENTATION_REPRESENTATION (  '', ( #1 ), #105 ) ;
#96 = LINE ( 'NONE', #166, #5 ) ;
#97 = EDGE_LOOP ( 'NONE', ( #118, #174, #160, #46 ) ) ;
#98 = PRODUCT_DEFINITION ( 'UNKNOWN', '', #108, #94 ) ;
#99 = ADVANCED_FACE ( 'NONE', ( #188 ), #107, .F. ) ;
#100 = LINE ( 'NONE', #183, #156 ) ;
#101 = VERTEX_POINT ( 'NONE', #71 ) ;
#102 = APPLICATION_PROTOCOL_DEFINITION ( 'draft international standard', 'automotive_design', 1998, #33 ) ;
#103 =( NAMED_UNIT ( * ) PLANE_ANGLE_UNIT ( ) SI_UNIT ( $, .RADIAN. ) );
#104 = MANIFOLD_SOLID_BREP ( 'Importiert1', #75 ) ;
#105 =( GEOMETRIC_REPRESENTATION_CONTEXT ( 3 ) GLOBAL_UNCERTAINTY_ASSIGNED_CONTEXT ( ( #30 ) ) GLOBAL_UNIT_ASSIGNED_CONTEXT ( ( #36, #14, #31 ) ) REPRESENTATION_CONTEXT ( 'NONE', 'WORKASPACE' ) );
#106 = UNCERTAINTY_MEASURE_WITH_UNIT (LENGTH_MEASURE( 1.000000000000000100E-005 ), #170, 'distance_accuracy_value', 'NONE');
#107 = PLANE ( 'NONE',  #79 ) ;
#108 = PRODUCT_DEFINITION_FORMATION_WITH_SPECIFIED_SOURCE ( 'ANY', '', #138, .NOT_KNOWN. ) ;
#109 = DIRECTION ( 'NONE',  ( 0.0000000000000000000, 0.0000000000000000000, 1.000000000000000000 ) ) ;
#110 = CARTESIAN_POINT ( 'NONE',  ( -500.0000000000000000, -250.0000000000000000, 1.000000000000000000 ) ) ;
#111 = ADVANCED_FACE ( 'NONE', ( #60 ), #88, .F. ) ;
#112 = COLOUR_RGB ( '',0.7764705882352941300, 0.7921568627450980000, 0.7803921568627451000 ) ;
#113 = ORIENTED_EDGE ( 'NONE', *, *, #200, .F. ) ;
#114 = VECTOR ( 'NONE', #145, 1000.000000000000000 ) ;
#115 = FILL_AREA_STYLE_COLOUR ( '', #147 ) ;
#116 = ORIENTED_EDGE ( 'NONE', *, *, #176, .T. ) ;
#117 = VECTOR ( 'NONE', #125, 1000.000000000000000 ) ;
#118 = ORIENTED_EDGE ( 'NONE', *, *, #56, .T. ) ;
#119 = CARTESIAN_POINT ( 'NONE',  ( 500.0000000000000000, -250.0000000000000000, 1.000000000000000000 ) ) ;
#120 = PRODUCT_RELATED_PRODUCT_CATEGORY ( 'part', '', ( #138 ) ) ;
#121 = DIRECTION ( 'NONE',  ( 0.0000000000000000000, -1.000000000000000000, 0.0000000000000000000 ) ) ;
#122 = DIRECTION ( 'NONE',  ( 0.0000000000000000000, 1.000000000000000000, 0.0000000000000000000 ) ) ;
#123 = VECTOR ( 'NONE', #73, 1000.000000000000000 ) ;
#124 = EDGE_LOOP ( 'NONE', ( #24, #29, #187, #141 ) ) ;
#125 = DIRECTION ( 'NONE',  ( 0.0000000000000000000, 0.0000000000000000000, -1.000000000000000000 ) ) ;
#126 = DIRECTION ( 'NONE',  ( 0.0000000000000000000, 0.0000000000000000000, 1.000000000000000000 ) ) ;
#127 = ORIENTED_EDGE ( 'NONE', *, *, #186, .F. ) ;
#128 = EDGE_CURVE ( 'NONE', #165, #67, #86, .T. ) ;
#129 = SURFACE_SIDE_STYLE ('',( #81 ) ) ;
#130 = APPLICATION_CONTEXT ( 'automotive_design' ) ;
#131 = LINE ( 'NONE', #20, #162 ) ;
#132 = DIRECTION ( 'NONE',  ( 1.000000000000000000, 0.0000000000000000000, 0.0000000000000000000 ) ) ;
#133 = CARTESIAN_POINT ( 'NONE',  ( 0.0000000000000000000, 0.0000000000000000000, 0.0000000000000000000 ) ) ;
#134 = SHAPE_DEFINITION_REPRESENTATION ( #32, #40 ) ;
#135 = CARTESIAN_POINT ( 'NONE',  ( -500.0000000000000000, 250.0000000000000000, 1.000000000000000000 ) ) ;
#136 = DIRECTION ( 'NONE',  ( 0.0000000000000000000, 0.0000000000000000000, -1.000000000000000000 ) ) ;
#137 = CARTESIAN_POINT ( 'NONE',  ( 500.0000000000000000, -250.0000000000000000, -7.000000000000000000 ) ) ;
#138 = PRODUCT ( '6520224_CNAJF00', '6520224_CNAJF00', '', ( #34 ) ) ;
#139 = EDGE_CURVE ( 'NONE', #9, #67, #131, .T. ) ;
#140 = CARTESIAN_POINT ( 'NONE',  ( 500.0000000000000000, 250.0000000000000000, 1.000000000000000000 ) ) ;
#141 = ORIENTED_EDGE ( 'NONE', *, *, #139, .T. ) ;
#142 = ADVANCED_FACE ( 'NONE', ( #164 ), #58, .F. ) ;
#143 = STYLED_ITEM ( 'NONE', ( #89 ), #104 ) ;
#144 = ORIENTED_EDGE ( 'NONE', *, *, #90, .F. ) ;
#145 = DIRECTION ( 'NONE',  ( 0.0000000000000000000, -1.000000000000000000, -0.0000000000000000000 ) ) ;
#146 =( GEOMETRIC_REPRESENTATION_CONTEXT ( 3 ) GLOBAL_UNCERTAINTY_ASSIGNED_CONTEXT ( ( #7 ) ) GLOBAL_UNIT_ASSIGNED_CONTEXT ( ( #12, #103, #70 ) ) REPRESENTATION_CONTEXT ( 'NONE', 'WORKASPACE' ) );
#147 = COLOUR_RGB ( '',0.7529411764705882200, 0.7529411764705882200, 0.7529411764705882200 ) ;
#148 = CARTESIAN_POINT ( 'NONE',  ( -500.0000000000000000, -250.0000000000000000, 1.000000000000000000 ) ) ;
#149 = CARTESIAN_POINT ( 'NONE',  ( -500.0000000000000000, -250.0000000000000000, -7.000000000000000000 ) ) ;
#150 = DIRECTION ( 'NONE',  ( 0.0000000000000000000, -0.0000000000000000000, 1.000000000000000000 ) ) ;
#151 = DIRECTION ( 'NONE',  ( -1.000000000000000000, 0.0000000000000000000, 0.0000000000000000000 ) ) ;
#152 = VECTOR ( 'NONE', #91, 1000.000000000000000 ) ;
#153 = ORIENTED_EDGE ( 'NONE', *, *, #22, .F. ) ;
#154 = LINE ( 'NONE', #8, #114 ) ;
#155 = ADVANCED_FACE ( 'NONE', ( #16 ), #21, .F. ) ;
#156 = VECTOR ( 'NONE', #77, 1000.000000000000000 ) ;
#157 = EDGE_CURVE ( 'NONE', #165, #101, #28, .T. ) ;
#158 = PLANE ( 'NONE',  #35 ) ;
#159 = SURFACE_STYLE_FILL_AREA ( #181 ) ;
#160 = ORIENTED_EDGE ( 'NONE', *, *, #176, .F. ) ;
#161 = MECHANICAL_DESIGN_GEOMETRIC_PRESENTATION_REPRESENTATION (  '', ( #143 ), #51 ) ;
#162 = VECTOR ( 'NONE', #2, 1000.000000000000000 ) ;
#163 = DIRECTION ( 'NONE',  ( 0.0000000000000000000, 1.000000000000000000, -0.0000000000000000000 ) ) ;
#164 = FACE_OUTER_BOUND ( 'NONE', #97, .T. ) ;
#165 = VERTEX_POINT ( 'NONE', #76 ) ;
#166 = CARTESIAN_POINT ( 'NONE',  ( -500.0000000000000000, 250.0000000000000000, -7.000000000000000000 ) ) ;
#167 = VERTEX_POINT ( 'NONE', #182 ) ;
#168 =( NAMED_UNIT ( * ) PLANE_ANGLE_UNIT ( ) SI_UNIT ( $, .RADIAN. ) );
#169 = SURFACE_SIDE_STYLE ('',( #159 ) ) ;
#170 =( LENGTH_UNIT ( ) NAMED_UNIT ( * ) SI_UNIT ( .MILLI., .METRE. ) );
#171 = LINE ( 'NONE', #135, #172 ) ;
#172 = VECTOR ( 'NONE', #87, 1000.000000000000000 ) ;
#173 = LINE ( 'NONE', #149, #23 ) ;
#174 = ORIENTED_EDGE ( 'NONE', *, *, #17, .F. ) ;
#175 = PRESENTATION_LAYER_ASSIGNMENT (  '', '', ( #143 ) ) ;
#176 = EDGE_CURVE ( 'NONE', #101, #193, #100, .T. ) ;
#177 = APPLICATION_PROTOCOL_DEFINITION ( 'draft international standard', 'automotive_design', 1998, #130 ) ;
#178 = LINE ( 'NONE', #84, #117 ) ;
#179 = EDGE_LOOP ( 'NONE', ( #190, #39, #144, #57 ) ) ;
#180 = CARTESIAN_POINT ( 'NONE',  ( -500.0000000000000000, 250.0000000000000000, -7.000000000000000000 ) ) ;
#181 = FILL_AREA_STYLE ('',( #55 ) ) ;
#182 = CARTESIAN_POINT ( 'NONE',  ( -500.0000000000000000, -250.0000000000000000, -7.000000000000000000 ) ) ;
#183 = CARTESIAN_POINT ( 'NONE',  ( 500.0000000000000000, 250.0000000000000000, 1.000000000000000000 ) ) ;
#184 = DIRECTION ( 'NONE',  ( -1.000000000000000000, -0.0000000000000000000, 0.0000000000000000000 ) ) ;
#185 = FACE_OUTER_BOUND ( 'NONE', #179, .T. ) ;
#186 = EDGE_CURVE ( 'NONE', #72, #9, #154, .T. ) ;
#187 = ORIENTED_EDGE ( 'NONE', *, *, #186, .T. ) ;
#188 = FACE_OUTER_BOUND ( 'NONE', #45, .T. ) ;
#189 = CARTESIAN_POINT ( 'NONE',  ( -500.0000000000000000, 250.0000000000000000, 1.000000000000000000 ) ) ;
#190 = ORIENTED_EDGE ( 'NONE', *, *, #191, .F. ) ;
#191 = EDGE_CURVE ( 'NONE', #101, #6, #96, .T. ) ;
#192 = SURFACE_STYLE_USAGE ( .BOTH. , #169 ) ;
#193 = VERTEX_POINT ( 'NONE', #66 ) ;
#194 = ADVANCED_FACE ( 'NONE', ( #52 ), #158, .T. ) ;
#195 = CARTESIAN_POINT ( 'NONE',  ( -500.0000000000000000, -250.0000000000000000, -7.000000000000000000 ) ) ;
#196 = ADVANCED_FACE ( 'NONE', ( #185 ), #80, .F. ) ;
#197 = AXIS2_PLACEMENT_3D ( 'NONE', #133, #85, #132 ) ;
#198 = ORIENTED_EDGE ( 'NONE', *, *, #128, .T. ) ;
#199 = CARTESIAN_POINT ( 'NONE',  ( 500.0000000000000000, -250.0000000000000000, 1.000000000000000000 ) ) ;
#200 = EDGE_CURVE ( 'NONE', #9, #167, #178, .T. ) ;
#201 = LINE ( 'NONE', #37, #74 ) ;
#202 = CARTESIAN_POINT ( 'NONE',  ( -500.0000000000000000, 250.0000000000000000, 1.000000000000000000 ) ) ;
ENDSEC;
END-ISO-10303-21;
