ISO-10303-21;
HEADER;
FILE_DESCRIPTION (( 'STEP AP214' ),
    '1' );
FILE_NAME ('6520182',
    '2019-02-01T12:48:11',
    ( '' ),
    ('JUGARD+KÜNSTNER GmbH'),
    'SwSTEP 2.0',
    'SolidWorks 2017',
    '' );
FILE_SCHEMA (( 'AUTOMOTIVE_DESIGN' ));
ENDSEC;

DATA;
#1 = CARTESIAN_POINT ( 'NONE',  ( -500.0000000000000000, 250.0000000000000000, 0.0000000000000000000 ) ) ;
#2 = DIRECTION ( 'NONE',  ( 1.000000000000000000, 0.0000000000000000000, -0.0000000000000000000 ) ) ;
#3 = DIRECTION ( 'NONE',  ( 0.0000000000000000000, 1.000000000000000000, -0.0000000000000000000 ) ) ;
#4 = DIRECTION ( 'NONE',  ( -1.000000000000000000, -0.0000000000000000000, 0.0000000000000000000 ) ) ;
#5 = SHAPE_DEFINITION_REPRESENTATION ( #7, #87 ) ;
#6 = DIRECTION ( 'NONE',  ( 0.0000000000000000000, -1.000000000000000000, 0.0000000000000000000 ) ) ;
#7 = PRODUCT_DEFINITION_SHAPE ( 'NONE', 'NONE',  #48 ) ;
#8 =( GEOMETRIC_REPRESENTATION_CONTEXT ( 3 ) GLOBAL_UNCERTAINTY_ASSIGNED_CONTEXT ( ( #131 ) ) GLOBAL_UNIT_ASSIGNED_CONTEXT ( ( #13, #194, #57 ) ) REPRESENTATION_CONTEXT ( 'NONE', 'WORKASPACE' ) );
#9 = ADVANCED_FACE ( 'NONE', ( #113 ), #146, .F. ) ;
#10 = DIRECTION ( 'NONE',  ( -1.000000000000000000, -0.0000000000000000000, -0.0000000000000000000 ) ) ;
#11 = ORIENTED_EDGE ( 'NONE', *, *, #201, .F. ) ;
#12 = PRODUCT_CONTEXT ( 'NONE', #91, 'mechanical' ) ;
#13 =( LENGTH_UNIT ( ) NAMED_UNIT ( * ) SI_UNIT ( .MILLI., .METRE. ) );
#14 = ORIENTED_EDGE ( 'NONE', *, *, #55, .T. ) ;
#15 = PRODUCT_DEFINITION_CONTEXT ( 'detailed design', #75, 'design' ) ;
#16 = FACE_OUTER_BOUND ( 'NONE', #42, .T. ) ;
#17 = ORIENTED_EDGE ( 'NONE', *, *, #78, .F. ) ;
#18 = STYLED_ITEM ( 'NONE', ( #68 ), #61 ) ;
#19 = DIRECTION ( 'NONE',  ( 1.000000000000000000, 0.0000000000000000000, -0.0000000000000000000 ) ) ;
#20 = CARTESIAN_POINT ( 'NONE',  ( -500.0000000000000000, 250.0000000000000000, 0.0000000000000000000 ) ) ;
#21 = COLOUR_RGB ( '',1.000000000000000000, 1.000000000000000000, 1.000000000000000000 ) ;
#22 =( NAMED_UNIT ( * ) PLANE_ANGLE_UNIT ( ) SI_UNIT ( $, .RADIAN. ) );
#23 = DIRECTION ( 'NONE',  ( -0.0000000000000000000, -0.0000000000000000000, 1.000000000000000000 ) ) ;
#24 = PRESENTATION_LAYER_ASSIGNMENT (  '', '', ( #18 ) ) ;
#25 = ORIENTED_EDGE ( 'NONE', *, *, #65, .F. ) ;
#26 = PRESENTATION_STYLE_ASSIGNMENT (( #196 ) ) ;
#27 = ORIENTED_EDGE ( 'NONE', *, *, #125, .T. ) ;
#28 = VERTEX_POINT ( 'NONE', #30 ) ;
#29 = STYLED_ITEM ( 'NONE', ( #26 ), #87 ) ;
#30 = CARTESIAN_POINT ( 'NONE',  ( 500.0000000000000000, 250.0000000000000000, 6.000000000000000000 ) ) ;
#31 = PRODUCT_DEFINITION_FORMATION_WITH_SPECIFIED_SOURCE ( 'ANY', '', #145, .NOT_KNOWN. ) ;
#32 = LINE ( 'NONE', #173, #105 ) ;
#33 = DIRECTION ( 'NONE',  ( 0.0000000000000000000, 1.000000000000000000, 0.0000000000000000000 ) ) ;
#34 = DIRECTION ( 'NONE',  ( 0.0000000000000000000, -1.000000000000000000, -0.0000000000000000000 ) ) ;
#35 = FILL_AREA_STYLE_COLOUR ( '', #132 ) ;
#36 =( LENGTH_UNIT ( ) NAMED_UNIT ( * ) SI_UNIT ( .MILLI., .METRE. ) );
#37 = DIRECTION ( 'NONE',  ( 1.000000000000000000, 0.0000000000000000000, -0.0000000000000000000 ) ) ;
#38 = VECTOR ( 'NONE', #4, 1000.000000000000000 ) ;
#39 = CARTESIAN_POINT ( 'NONE',  ( -500.0000000000000000, 250.0000000000000000, 6.000000000000000000 ) ) ;
#40 = AXIS2_PLACEMENT_3D ( 'NONE', #160, #76, #177 ) ;
#41 = ADVANCED_FACE ( 'NONE', ( #54 ), #161, .F. ) ;
#42 = EDGE_LOOP ( 'NONE', ( #101, #94, #148, #27 ) ) ;
#43 = LINE ( 'NONE', #200, #164 ) ;
#44 = LINE ( 'NONE', #86, #77 ) ;
#45 = AXIS2_PLACEMENT_3D ( 'NONE', #73, #89, #92 ) ;
#46 = FACE_OUTER_BOUND ( 'NONE', #102, .T. ) ;
#47 = ORIENTED_EDGE ( 'NONE', *, *, #134, .T. ) ;
#48 = PRODUCT_DEFINITION ( 'UNKNOWN', '', #31, #15 ) ;
#49 = CARTESIAN_POINT ( 'NONE',  ( 500.0000000000000000, 250.0000000000000000, 6.000000000000000000 ) ) ;
#50 = CARTESIAN_POINT ( 'NONE',  ( -500.0000000000000000, -250.0000000000000000, 0.0000000000000000000 ) ) ;
#51 = LINE ( 'NONE', #137, #118 ) ;
#52 = SURFACE_STYLE_USAGE ( .BOTH. , #172 ) ;
#53 = PRESENTATION_LAYER_ASSIGNMENT (  '', '', ( #29 ) ) ;
#54 = FACE_OUTER_BOUND ( 'NONE', #157, .T. ) ;
#55 = EDGE_CURVE ( 'NONE', #193, #171, #43, .T. ) ;
#56 = SURFACE_SIDE_STYLE ('',( #175 ) ) ;
#57 =( NAMED_UNIT ( * ) SI_UNIT ( $, .STERADIAN. ) SOLID_ANGLE_UNIT ( ) );
#58 = EDGE_CURVE ( 'NONE', #107, #119, #51, .T. ) ;
#59 =( NAMED_UNIT ( * ) SI_UNIT ( $, .STERADIAN. ) SOLID_ANGLE_UNIT ( ) );
#60 = ORIENTED_EDGE ( 'NONE', *, *, #58, .T. ) ;
#61 = MANIFOLD_SOLID_BREP ( 'Importiert1', #116 ) ;
#62 = ORIENTED_EDGE ( 'NONE', *, *, #58, .F. ) ;
#63 = PLANE ( 'NONE',  #159 ) ;
#64 = CARTESIAN_POINT ( 'NONE',  ( 500.0000000000000000, 250.0000000000000000, 6.000000000000000000 ) ) ;
#65 = EDGE_CURVE ( 'NONE', #85, #167, #80, .T. ) ;
#66 = DIRECTION ( 'NONE',  ( -0.0000000000000000000, 0.0000000000000000000, 1.000000000000000000 ) ) ;
#67 = CARTESIAN_POINT ( 'NONE',  ( 500.0000000000000000, -250.0000000000000000, 0.0000000000000000000 ) ) ;
#68 = PRESENTATION_STYLE_ASSIGNMENT (( #52 ) ) ;
#69 = ADVANCED_FACE ( 'NONE', ( #16 ), #110, .T. ) ;
#70 = AXIS2_PLACEMENT_3D ( 'NONE', #153, #6, #155 ) ;
#71 = VECTOR ( 'NONE', #10, 1000.000000000000000 ) ;
#72 = FILL_AREA_STYLE ('',( #35 ) ) ;
#73 = CARTESIAN_POINT ( 'NONE',  ( 500.0000000000000000, -250.0000000000000000, 6.000000000000000000 ) ) ;
#74 = LINE ( 'NONE', #50, #133 ) ;
#75 = APPLICATION_CONTEXT ( 'automotive_design' ) ;
#76 = DIRECTION ( 'NONE',  ( 0.0000000000000000000, 0.0000000000000000000, 1.000000000000000000 ) ) ;
#77 = VECTOR ( 'NONE', #154, 1000.000000000000000 ) ;
#78 = EDGE_CURVE ( 'NONE', #85, #28, #136, .T. ) ;
#79 = DIRECTION ( 'NONE',  ( 0.0000000000000000000, 0.0000000000000000000, 1.000000000000000000 ) ) ;
#80 = LINE ( 'NONE', #1, #38 ) ;
#81 = CARTESIAN_POINT ( 'NONE',  ( -500.0000000000000000, -250.0000000000000000, 6.000000000000000000 ) ) ;
#82 = PRODUCT_RELATED_PRODUCT_CATEGORY ( 'part', '', ( #145 ) ) ;
#83 = ORIENTED_EDGE ( 'NONE', *, *, #189, .T. ) ;
#84 = PLANE ( 'NONE',  #198 ) ;
#85 = VERTEX_POINT ( 'NONE', #141 ) ;
#86 = CARTESIAN_POINT ( 'NONE',  ( 500.0000000000000000, -250.0000000000000000, 0.0000000000000000000 ) ) ;
#87 = ADVANCED_BREP_SHAPE_REPRESENTATION ( '6520182_CNAJF00', ( #61, #40 ), #130 ) ;
#88 = VECTOR ( 'NONE', #95, 1000.000000000000000 ) ;
#89 = DIRECTION ( 'NONE',  ( -1.000000000000000000, 0.0000000000000000000, 0.0000000000000000000 ) ) ;
#90 =( GEOMETRIC_REPRESENTATION_CONTEXT ( 3 ) GLOBAL_UNCERTAINTY_ASSIGNED_CONTEXT ( ( #176 ) ) GLOBAL_UNIT_ASSIGNED_CONTEXT ( ( #36, #22, #109 ) ) REPRESENTATION_CONTEXT ( 'NONE', 'WORKASPACE' ) );
#91 = APPLICATION_CONTEXT ( 'automotive_design' ) ;
#92 = DIRECTION ( 'NONE',  ( 0.0000000000000000000, 0.0000000000000000000, 1.000000000000000000 ) ) ;
#93 = DIRECTION ( 'NONE',  ( 0.0000000000000000000, -0.0000000000000000000, 1.000000000000000000 ) ) ;
#94 = ORIENTED_EDGE ( 'NONE', *, *, #192, .T. ) ;
#95 = DIRECTION ( 'NONE',  ( 1.000000000000000000, 0.0000000000000000000, -0.0000000000000000000 ) ) ;
#96 = CARTESIAN_POINT ( 'NONE',  ( -500.0000000000000000, -250.0000000000000000, 0.0000000000000000000 ) ) ;
#97 = ADVANCED_FACE ( 'NONE', ( #46 ), #63, .F. ) ;
#98 = SURFACE_STYLE_FILL_AREA ( #184 ) ;
#99 = ADVANCED_FACE ( 'NONE', ( #123 ), #152, .F. ) ;
#100 = DIRECTION ( 'NONE',  ( 1.000000000000000000, 0.0000000000000000000, 0.0000000000000000000 ) ) ;
#101 = ORIENTED_EDGE ( 'NONE', *, *, #179, .T. ) ;
#102 = EDGE_LOOP ( 'NONE', ( #25, #142, #165, #144 ) ) ;
#103 = ORIENTED_EDGE ( 'NONE', *, *, #125, .F. ) ;
#104 = DIRECTION ( 'NONE',  ( 0.0000000000000000000, -1.000000000000000000, -0.0000000000000000000 ) ) ;
#105 = VECTOR ( 'NONE', #104, 1000.000000000000000 ) ;
#106 = LINE ( 'NONE', #187, #181 ) ;
#107 = VERTEX_POINT ( 'NONE', #67 ) ;
#108 = CARTESIAN_POINT ( 'NONE',  ( -500.0000000000000000, 250.0000000000000000, 6.000000000000000000 ) ) ;
#109 =( NAMED_UNIT ( * ) SI_UNIT ( $, .STERADIAN. ) SOLID_ANGLE_UNIT ( ) );
#110 = PLANE ( 'NONE',  #174 ) ;
#111 = DIRECTION ( 'NONE',  ( 0.0000000000000000000, 0.0000000000000000000, -1.000000000000000000 ) ) ;
#112 = ORIENTED_EDGE ( 'NONE', *, *, #78, .T. ) ;
#113 = FACE_OUTER_BOUND ( 'NONE', #135, .T. ) ;
#114 = EDGE_CURVE ( 'NONE', #167, #171, #74, .T. ) ;
#115 = APPLICATION_PROTOCOL_DEFINITION ( 'draft international standard', 'automotive_design', 1998, #75 ) ;
#116 = CLOSED_SHELL ( 'NONE', ( #97, #128, #99, #9, #41, #69 ) ) ;
#117 =( NAMED_UNIT ( * ) PLANE_ANGLE_UNIT ( ) SI_UNIT ( $, .RADIAN. ) );
#118 = VECTOR ( 'NONE', #79, 1000.000000000000000 ) ;
#119 = VERTEX_POINT ( 'NONE', #168 ) ;
#120 = VECTOR ( 'NONE', #23, 1000.000000000000000 ) ;
#121 = CARTESIAN_POINT ( 'NONE',  ( 500.0000000000000000, -250.0000000000000000, 6.000000000000000000 ) ) ;
#122 = CARTESIAN_POINT ( 'NONE',  ( -500.0000000000000000, -250.0000000000000000, 0.0000000000000000000 ) ) ;
#123 = FACE_OUTER_BOUND ( 'NONE', #126, .T. ) ;
#124 = DIRECTION ( 'NONE',  ( 0.0000000000000000000, 0.0000000000000000000, 1.000000000000000000 ) ) ;
#125 = EDGE_CURVE ( 'NONE', #193, #119, #190, .T. ) ;
#126 = EDGE_LOOP ( 'NONE', ( #191, #138, #17, #143 ) ) ;
#127 = CARTESIAN_POINT ( 'NONE',  ( -500.0000000000000000, -250.0000000000000000, 6.000000000000000000 ) ) ;
#128 = ADVANCED_FACE ( 'NONE', ( #197 ), #84, .F. ) ;
#129 = VERTEX_POINT ( 'NONE', #39 ) ;
#130 =( GEOMETRIC_REPRESENTATION_CONTEXT ( 3 ) GLOBAL_UNCERTAINTY_ASSIGNED_CONTEXT ( ( #163 ) ) GLOBAL_UNIT_ASSIGNED_CONTEXT ( ( #158, #117, #59 ) ) REPRESENTATION_CONTEXT ( 'NONE', 'WORKASPACE' ) );
#131 = UNCERTAINTY_MEASURE_WITH_UNIT (LENGTH_MEASURE( 1.000000000000000100E-005 ), #13, 'distance_accuracy_value', 'NONE');
#132 = COLOUR_RGB ( '',0.7529411764705882200, 0.7529411764705882200, 0.7529411764705882200 ) ;
#133 = VECTOR ( 'NONE', #34, 1000.000000000000000 ) ;
#134 = EDGE_CURVE ( 'NONE', #171, #107, #106, .T. ) ;
#135 = EDGE_LOOP ( 'NONE', ( #112, #151, #62, #83 ) ) ;
#136 = LINE ( 'NONE', #49, #150 ) ;
#137 = CARTESIAN_POINT ( 'NONE',  ( 500.0000000000000000, -250.0000000000000000, 6.000000000000000000 ) ) ;
#138 = ORIENTED_EDGE ( 'NONE', *, *, #192, .F. ) ;
#139 = DIRECTION ( 'NONE',  ( 0.0000000000000000000, 0.0000000000000000000, -1.000000000000000000 ) ) ;
#140 = DIRECTION ( 'NONE',  ( 0.0000000000000000000, 0.0000000000000000000, 1.000000000000000000 ) ) ;
#141 = CARTESIAN_POINT ( 'NONE',  ( 500.0000000000000000, 250.0000000000000000, 0.0000000000000000000 ) ) ;
#142 = ORIENTED_EDGE ( 'NONE', *, *, #189, .F. ) ;
#143 = ORIENTED_EDGE ( 'NONE', *, *, #65, .T. ) ;
#144 = ORIENTED_EDGE ( 'NONE', *, *, #114, .F. ) ;
#145 = PRODUCT ( '6520182_CNAJF00', '6520182_CNAJF00', '', ( #12 ) ) ;
#146 = PLANE ( 'NONE',  #45 ) ;
#147 = AXIS2_PLACEMENT_3D ( 'NONE', #81, #33, #93 ) ;
#148 = ORIENTED_EDGE ( 'NONE', *, *, #201, .T. ) ;
#149 = MECHANICAL_DESIGN_GEOMETRIC_PRESENTATION_REPRESENTATION (  '', ( #29 ), #8 ) ;
#150 = VECTOR ( 'NONE', #66, 1000.000000000000000 ) ;
#151 = ORIENTED_EDGE ( 'NONE', *, *, #179, .F. ) ;
#152 = PLANE ( 'NONE',  #70 ) ;
#153 = CARTESIAN_POINT ( 'NONE',  ( 500.0000000000000000, 250.0000000000000000, 6.000000000000000000 ) ) ;
#154 = DIRECTION ( 'NONE',  ( -0.0000000000000000000, 1.000000000000000000, 0.0000000000000000000 ) ) ;
#155 = DIRECTION ( 'NONE',  ( 0.0000000000000000000, -0.0000000000000000000, -1.000000000000000000 ) ) ;
#156 = LINE ( 'NONE', #121, #186 ) ;
#157 = EDGE_LOOP ( 'NONE', ( #60, #103, #14, #47 ) ) ;
#158 =( LENGTH_UNIT ( ) NAMED_UNIT ( * ) SI_UNIT ( .MILLI., .METRE. ) );
#159 = AXIS2_PLACEMENT_3D ( 'NONE', #122, #140, #37 ) ;
#160 = CARTESIAN_POINT ( 'NONE',  ( 0.0000000000000000000, 0.0000000000000000000, 0.0000000000000000000 ) ) ;
#161 = PLANE ( 'NONE',  #147 ) ;
#162 = LINE ( 'NONE', #108, #120 ) ;
#163 = UNCERTAINTY_MEASURE_WITH_UNIT (LENGTH_MEASURE( 1.000000000000000100E-005 ), #158, 'distance_accuracy_value', 'NONE');
#164 = VECTOR ( 'NONE', #139, 1000.000000000000000 ) ;
#165 = ORIENTED_EDGE ( 'NONE', *, *, #134, .F. ) ;
#166 = EDGE_CURVE ( 'NONE', #167, #129, #162, .T. ) ;
#167 = VERTEX_POINT ( 'NONE', #20 ) ;
#168 = CARTESIAN_POINT ( 'NONE',  ( 500.0000000000000000, -250.0000000000000000, 6.000000000000000000 ) ) ;
#169 = ORIENTED_EDGE ( 'NONE', *, *, #55, .F. ) ;
#170 = CARTESIAN_POINT ( 'NONE',  ( -500.0000000000000000, -250.0000000000000000, 6.000000000000000000 ) ) ;
#171 = VERTEX_POINT ( 'NONE', #96 ) ;
#172 = SURFACE_SIDE_STYLE ('',( #98 ) ) ;
#173 = CARTESIAN_POINT ( 'NONE',  ( -500.0000000000000000, 250.0000000000000000, 6.000000000000000000 ) ) ;
#174 = AXIS2_PLACEMENT_3D ( 'NONE', #127, #124, #19 ) ;
#175 = SURFACE_STYLE_FILL_AREA ( #72 ) ;
#176 = UNCERTAINTY_MEASURE_WITH_UNIT (LENGTH_MEASURE( 1.000000000000000100E-005 ), #36, 'distance_accuracy_value', 'NONE');
#177 = DIRECTION ( 'NONE',  ( 1.000000000000000000, 0.0000000000000000000, 0.0000000000000000000 ) ) ;
#178 = ORIENTED_EDGE ( 'NONE', *, *, #166, .F. ) ;
#179 = EDGE_CURVE ( 'NONE', #119, #28, #156, .T. ) ;
#180 = LINE ( 'NONE', #64, #71 ) ;
#181 = VECTOR ( 'NONE', #2, 1000.000000000000000 ) ;
#182 = FILL_AREA_STYLE_COLOUR ( '', #21 ) ;
#183 = MECHANICAL_DESIGN_GEOMETRIC_PRESENTATION_REPRESENTATION (  '', ( #18 ), #90 ) ;
#184 = FILL_AREA_STYLE ('',( #182 ) ) ;
#185 = CARTESIAN_POINT ( 'NONE',  ( -500.0000000000000000, -250.0000000000000000, 6.000000000000000000 ) ) ;
#186 = VECTOR ( 'NONE', #3, 1000.000000000000000 ) ;
#187 = CARTESIAN_POINT ( 'NONE',  ( -500.0000000000000000, -250.0000000000000000, 0.0000000000000000000 ) ) ;
#188 = CARTESIAN_POINT ( 'NONE',  ( -500.0000000000000000, 250.0000000000000000, 6.000000000000000000 ) ) ;
#189 = EDGE_CURVE ( 'NONE', #107, #85, #44, .T. ) ;
#190 = LINE ( 'NONE', #185, #88 ) ;
#191 = ORIENTED_EDGE ( 'NONE', *, *, #166, .T. ) ;
#192 = EDGE_CURVE ( 'NONE', #28, #129, #180, .T. ) ;
#193 = VERTEX_POINT ( 'NONE', #170 ) ;
#194 =( NAMED_UNIT ( * ) PLANE_ANGLE_UNIT ( ) SI_UNIT ( $, .RADIAN. ) );
#195 = APPLICATION_PROTOCOL_DEFINITION ( 'draft international standard', 'automotive_design', 1998, #91 ) ;
#196 = SURFACE_STYLE_USAGE ( .BOTH. , #56 ) ;
#197 = FACE_OUTER_BOUND ( 'NONE', #199, .T. ) ;
#198 = AXIS2_PLACEMENT_3D ( 'NONE', #188, #100, #111 ) ;
#199 = EDGE_LOOP ( 'NONE', ( #169, #11, #178, #202 ) ) ;
#200 = CARTESIAN_POINT ( 'NONE',  ( -500.0000000000000000, -250.0000000000000000, 6.000000000000000000 ) ) ;
#201 = EDGE_CURVE ( 'NONE', #129, #193, #32, .T. ) ;
#202 = ORIENTED_EDGE ( 'NONE', *, *, #114, .T. ) ;
ENDSEC;
END-ISO-10303-21;
