ISO-10303-21;
HEADER;
FILE_DESCRIPTION (( 'STEP AP214' ),
    '1' );
FILE_NAME ('6520156',
    '2019-02-01T12:48:16',
    ( '' ),
    ('JUGARD+KÜNSTNER GmbH'),
    'SwSTEP 2.0',
    'SolidWorks 2017',
    '' );
FILE_SCHEMA (( 'AUTOMOTIVE_DESIGN' ));
ENDSEC;

DATA;
#1 = VECTOR ( 'NONE', #70, 1000.000000000000000 ) ;
#2 = PLANE ( 'NONE',  #177 ) ;
#3 = DIRECTION ( 'NONE',  ( 1.000000000000000000, 0.0000000000000000000, -0.0000000000000000000 ) ) ;
#4 =( LENGTH_UNIT ( ) NAMED_UNIT ( * ) SI_UNIT ( .MILLI., .METRE. ) );
#5 = COLOUR_RGB ( '',0.7529411764705882200, 0.7529411764705882200, 0.7529411764705882200 ) ;
#6 = CARTESIAN_POINT ( 'NONE',  ( 500.0000000000000000, -250.0000000000000000, 0.0000000000000000000 ) ) ;
#7 = UNCERTAINTY_MEASURE_WITH_UNIT (LENGTH_MEASURE( 1.000000000000000100E-005 ), #12, 'distance_accuracy_value', 'NONE');
#8 = AXIS2_PLACEMENT_3D ( 'NONE', #191, #129, #170 ) ;
#9 = ORIENTED_EDGE ( 'NONE', *, *, #155, .T. ) ;
#10 = APPLICATION_CONTEXT ( 'automotive_design' ) ;
#11 = LINE ( 'NONE', #37, #168 ) ;
#12 =( LENGTH_UNIT ( ) NAMED_UNIT ( * ) SI_UNIT ( .MILLI., .METRE. ) );
#13 = EDGE_CURVE ( 'NONE', #105, #62, #25, .T. ) ;
#14 = ADVANCED_FACE ( 'NONE', ( #24 ), #15, .T. ) ;
#15 = PLANE ( 'NONE',  #61 ) ;
#16 = SURFACE_SIDE_STYLE ('',( #166 ) ) ;
#17 = EDGE_LOOP ( 'NONE', ( #45, #69, #109, #149 ) ) ;
#18 = CARTESIAN_POINT ( 'NONE',  ( 500.0000000000000000, 250.0000000000000000, 10.00000000000000000 ) ) ;
#19 = STYLED_ITEM ( 'NONE', ( #146 ), #112 ) ;
#20 = CARTESIAN_POINT ( 'NONE',  ( -500.0000000000000000, 250.0000000000000000, 0.0000000000000000000 ) ) ;
#21 = VERTEX_POINT ( 'NONE', #85 ) ;
#22 = CARTESIAN_POINT ( 'NONE',  ( -500.0000000000000000, -250.0000000000000000, 0.0000000000000000000 ) ) ;
#23 = UNCERTAINTY_MEASURE_WITH_UNIT (LENGTH_MEASURE( 1.000000000000000100E-005 ), #4, 'distance_accuracy_value', 'NONE');
#24 = FACE_OUTER_BOUND ( 'NONE', #181, .T. ) ;
#25 = LINE ( 'NONE', #127, #140 ) ;
#26 = LINE ( 'NONE', #101, #118 ) ;
#27 = ORIENTED_EDGE ( 'NONE', *, *, #148, .T. ) ;
#28 = VECTOR ( 'NONE', #174, 1000.000000000000000 ) ;
#29 = ORIENTED_EDGE ( 'NONE', *, *, #137, .T. ) ;
#30 = DIRECTION ( 'NONE',  ( 0.0000000000000000000, 0.0000000000000000000, 1.000000000000000000 ) ) ;
#31 = FACE_OUTER_BOUND ( 'NONE', #110, .T. ) ;
#32 = CARTESIAN_POINT ( 'NONE',  ( -500.0000000000000000, 250.0000000000000000, 0.0000000000000000000 ) ) ;
#33 = DIRECTION ( 'NONE',  ( 0.0000000000000000000, 0.0000000000000000000, -1.000000000000000000 ) ) ;
#34 = ORIENTED_EDGE ( 'NONE', *, *, #51, .T. ) ;
#35 =( NAMED_UNIT ( * ) PLANE_ANGLE_UNIT ( ) SI_UNIT ( $, .RADIAN. ) );
#36 = PRODUCT_DEFINITION_CONTEXT ( 'detailed design', #10, 'design' ) ;
#37 = CARTESIAN_POINT ( 'NONE',  ( -500.0000000000000000, -250.0000000000000000, 0.0000000000000000000 ) ) ;
#38 = AXIS2_PLACEMENT_3D ( 'NONE', #52, #88, #145 ) ;
#39 = DIRECTION ( 'NONE',  ( -0.0000000000000000000, 1.000000000000000000, 0.0000000000000000000 ) ) ;
#40 = ORIENTED_EDGE ( 'NONE', *, *, #78, .F. ) ;
#41 = MANIFOLD_SOLID_BREP ( 'Importiert1', #65 ) ;
#42 = FILL_AREA_STYLE_COLOUR ( '', #5 ) ;
#43 = VECTOR ( 'NONE', #141, 1000.000000000000000 ) ;
#44 = FACE_OUTER_BOUND ( 'NONE', #184, .T. ) ;
#45 = ORIENTED_EDGE ( 'NONE', *, *, #151, .T. ) ;
#46 = SHAPE_DEFINITION_REPRESENTATION ( #48, #112 ) ;
#47 = FACE_OUTER_BOUND ( 'NONE', #17, .T. ) ;
#48 = PRODUCT_DEFINITION_SHAPE ( 'NONE', 'NONE',  #81 ) ;
#49 = ORIENTED_EDGE ( 'NONE', *, *, #164, .F. ) ;
#50 =( NAMED_UNIT ( * ) SI_UNIT ( $, .STERADIAN. ) SOLID_ANGLE_UNIT ( ) );
#51 = EDGE_CURVE ( 'NONE', #189, #82, #123, .T. ) ;
#52 = CARTESIAN_POINT ( 'NONE',  ( -500.0000000000000000, 250.0000000000000000, 10.00000000000000000 ) ) ;
#53 = UNCERTAINTY_MEASURE_WITH_UNIT (LENGTH_MEASURE( 1.000000000000000100E-005 ), #76, 'distance_accuracy_value', 'NONE');
#54 = CARTESIAN_POINT ( 'NONE',  ( -500.0000000000000000, 250.0000000000000000, 10.00000000000000000 ) ) ;
#55 = EDGE_CURVE ( 'NONE', #21, #189, #163, .T. ) ;
#56 = FACE_OUTER_BOUND ( 'NONE', #113, .T. ) ;
#57 = ORIENTED_EDGE ( 'NONE', *, *, #55, .F. ) ;
#58 = SURFACE_SIDE_STYLE ('',( #158 ) ) ;
#59 = VERTEX_POINT ( 'NONE', #63 ) ;
#60 = APPLICATION_PROTOCOL_DEFINITION ( 'draft international standard', 'automotive_design', 1998, #10 ) ;
#61 = AXIS2_PLACEMENT_3D ( 'NONE', #200, #30, #185 ) ;
#62 = VERTEX_POINT ( 'NONE', #97 ) ;
#63 = CARTESIAN_POINT ( 'NONE',  ( -500.0000000000000000, -250.0000000000000000, 0.0000000000000000000 ) ) ;
#64 = DIRECTION ( 'NONE',  ( 0.0000000000000000000, -1.000000000000000000, 0.0000000000000000000 ) ) ;
#65 = CLOSED_SHELL ( 'NONE', ( #197, #125, #66, #84, #186, #14 ) ) ;
#66 = ADVANCED_FACE ( 'NONE', ( #119 ), #154, .F. ) ;
#67 = DIRECTION ( 'NONE',  ( 0.0000000000000000000, 0.0000000000000000000, 1.000000000000000000 ) ) ;
#68 = CARTESIAN_POINT ( 'NONE',  ( -500.0000000000000000, -250.0000000000000000, 10.00000000000000000 ) ) ;
#69 = ORIENTED_EDGE ( 'NONE', *, *, #92, .F. ) ;
#70 = DIRECTION ( 'NONE',  ( 0.0000000000000000000, -1.000000000000000000, -0.0000000000000000000 ) ) ;
#71 = CARTESIAN_POINT ( 'NONE',  ( 500.0000000000000000, -250.0000000000000000, 0.0000000000000000000 ) ) ;
#72 = ORIENTED_EDGE ( 'NONE', *, *, #144, .T. ) ;
#73 = APPLICATION_PROTOCOL_DEFINITION ( 'draft international standard', 'automotive_design', 1998, #175 ) ;
#74 = FILL_AREA_STYLE ('',( #42 ) ) ;
#75 = ORIENTED_EDGE ( 'NONE', *, *, #148, .F. ) ;
#76 =( LENGTH_UNIT ( ) NAMED_UNIT ( * ) SI_UNIT ( .MILLI., .METRE. ) );
#77 = ORIENTED_EDGE ( 'NONE', *, *, #51, .F. ) ;
#78 = EDGE_CURVE ( 'NONE', #82, #105, #128, .T. ) ;
#79 = COLOUR_RGB ( '',1.000000000000000000, 1.000000000000000000, 1.000000000000000000 ) ;
#80 = LINE ( 'NONE', #173, #108 ) ;
#81 = PRODUCT_DEFINITION ( 'UNKNOWN', '', #182, #36 ) ;
#82 = VERTEX_POINT ( 'NONE', #153 ) ;
#83 = DIRECTION ( 'NONE',  ( 0.0000000000000000000, -0.0000000000000000000, -1.000000000000000000 ) ) ;
#84 = ADVANCED_FACE ( 'NONE', ( #47 ), #143, .F. ) ;
#85 = CARTESIAN_POINT ( 'NONE',  ( 500.0000000000000000, 250.0000000000000000, 0.0000000000000000000 ) ) ;
#86 = CARTESIAN_POINT ( 'NONE',  ( -500.0000000000000000, 250.0000000000000000, 10.00000000000000000 ) ) ;
#87 = LINE ( 'NONE', #91, #43 ) ;
#88 = DIRECTION ( 'NONE',  ( 1.000000000000000000, 0.0000000000000000000, 0.0000000000000000000 ) ) ;
#89 = MECHANICAL_DESIGN_GEOMETRIC_PRESENTATION_REPRESENTATION (  '', ( #19 ), #195 ) ;
#90 = VECTOR ( 'NONE', #202, 1000.000000000000000 ) ;
#91 = CARTESIAN_POINT ( 'NONE',  ( 500.0000000000000000, -250.0000000000000000, 10.00000000000000000 ) ) ;
#92 = EDGE_CURVE ( 'NONE', #62, #147, #87, .T. ) ;
#93 = LINE ( 'NONE', #192, #122 ) ;
#94 =( NAMED_UNIT ( * ) SI_UNIT ( $, .STERADIAN. ) SOLID_ANGLE_UNIT ( ) );
#95 = AXIS2_PLACEMENT_3D ( 'NONE', #68, #130, #171 ) ;
#96 = VECTOR ( 'NONE', #116, 1000.000000000000000 ) ;
#97 = CARTESIAN_POINT ( 'NONE',  ( 500.0000000000000000, -250.0000000000000000, 10.00000000000000000 ) ) ;
#98 = STYLED_ITEM ( 'NONE', ( #138 ), #41 ) ;
#99 = ORIENTED_EDGE ( 'NONE', *, *, #151, .F. ) ;
#100 = DIRECTION ( 'NONE',  ( 1.000000000000000000, 0.0000000000000000000, -0.0000000000000000000 ) ) ;
#101 = CARTESIAN_POINT ( 'NONE',  ( -500.0000000000000000, -250.0000000000000000, 0.0000000000000000000 ) ) ;
#102 = ORIENTED_EDGE ( 'NONE', *, *, #144, .F. ) ;
#103 = DIRECTION ( 'NONE',  ( -0.0000000000000000000, 0.0000000000000000000, 1.000000000000000000 ) ) ;
#104 = AXIS2_PLACEMENT_3D ( 'NONE', #190, #120, #150 ) ;
#105 = VERTEX_POINT ( 'NONE', #156 ) ;
#106 = ORIENTED_EDGE ( 'NONE', *, *, #13, .F. ) ;
#107 = PRODUCT_CONTEXT ( 'NONE', #175, 'mechanical' ) ;
#108 = VECTOR ( 'NONE', #103, 1000.000000000000000 ) ;
#109 = ORIENTED_EDGE ( 'NONE', *, *, #137, .F. ) ;
#110 = EDGE_LOOP ( 'NONE', ( #57, #49, #142, #102 ) ) ;
#111 = ORIENTED_EDGE ( 'NONE', *, *, #167, .F. ) ;
#112 = ADVANCED_BREP_SHAPE_REPRESENTATION ( '6520156_CNAJF00', ( #41, #104 ), #180 ) ;
#113 = EDGE_LOOP ( 'NONE', ( #75, #40, #77, #72 ) ) ;
#114 = PLANE ( 'NONE',  #95 ) ;
#115 = PRESENTATION_LAYER_ASSIGNMENT (  '', '', ( #19 ) ) ;
#116 = DIRECTION ( 'NONE',  ( 0.0000000000000000000, 0.0000000000000000000, 1.000000000000000000 ) ) ;
#117 = DIRECTION ( 'NONE',  ( 0.0000000000000000000, -1.000000000000000000, -0.0000000000000000000 ) ) ;
#118 = VECTOR ( 'NONE', #100, 1000.000000000000000 ) ;
#119 = FACE_OUTER_BOUND ( 'NONE', #178, .T. ) ;
#120 = DIRECTION ( 'NONE',  ( 0.0000000000000000000, 0.0000000000000000000, 1.000000000000000000 ) ) ;
#121 = ORIENTED_EDGE ( 'NONE', *, *, #55, .T. ) ;
#122 = VECTOR ( 'NONE', #33, 1000.000000000000000 ) ;
#123 = LINE ( 'NONE', #86, #90 ) ;
#124 =( NAMED_UNIT ( * ) PLANE_ANGLE_UNIT ( ) SI_UNIT ( $, .RADIAN. ) );
#125 = ADVANCED_FACE ( 'NONE', ( #56 ), #131, .F. ) ;
#126 = DIRECTION ( 'NONE',  ( 1.000000000000000000, 0.0000000000000000000, -0.0000000000000000000 ) ) ;
#127 = CARTESIAN_POINT ( 'NONE',  ( -500.0000000000000000, -250.0000000000000000, 10.00000000000000000 ) ) ;
#128 = LINE ( 'NONE', #54, #1 ) ;
#129 = DIRECTION ( 'NONE',  ( -1.000000000000000000, 0.0000000000000000000, 0.0000000000000000000 ) ) ;
#130 = DIRECTION ( 'NONE',  ( 0.0000000000000000000, 1.000000000000000000, 0.0000000000000000000 ) ) ;
#131 = PLANE ( 'NONE',  #38 ) ;
#132 = CARTESIAN_POINT ( 'NONE',  ( 500.0000000000000000, 250.0000000000000000, 10.00000000000000000 ) ) ;
#133 = PRESENTATION_LAYER_ASSIGNMENT (  '', '', ( #98 ) ) ;
#134 = LINE ( 'NONE', #160, #96 ) ;
#135 = ORIENTED_EDGE ( 'NONE', *, *, #78, .T. ) ;
#136 = SURFACE_STYLE_USAGE ( .BOTH. , #58 ) ;
#137 = EDGE_CURVE ( 'NONE', #152, #62, #134, .T. ) ;
#138 = PRESENTATION_STYLE_ASSIGNMENT (( #198 ) ) ;
#139 = DIRECTION ( 'NONE',  ( -1.000000000000000000, -0.0000000000000000000, 0.0000000000000000000 ) ) ;
#140 = VECTOR ( 'NONE', #126, 1000.000000000000000 ) ;
#141 = DIRECTION ( 'NONE',  ( 0.0000000000000000000, 1.000000000000000000, -0.0000000000000000000 ) ) ;
#142 = ORIENTED_EDGE ( 'NONE', *, *, #155, .F. ) ;
#143 = PLANE ( 'NONE',  #8 ) ;
#144 = EDGE_CURVE ( 'NONE', #189, #59, #11, .T. ) ;
#145 = DIRECTION ( 'NONE',  ( 0.0000000000000000000, 0.0000000000000000000, -1.000000000000000000 ) ) ;
#146 = PRESENTATION_STYLE_ASSIGNMENT (( #136 ) ) ;
#147 = VERTEX_POINT ( 'NONE', #18 ) ;
#148 = EDGE_CURVE ( 'NONE', #105, #59, #93, .T. ) ;
#149 = ORIENTED_EDGE ( 'NONE', *, *, #164, .T. ) ;
#150 = DIRECTION ( 'NONE',  ( 1.000000000000000000, 0.0000000000000000000, 0.0000000000000000000 ) ) ;
#151 = EDGE_CURVE ( 'NONE', #21, #147, #80, .T. ) ;
#152 = VERTEX_POINT ( 'NONE', #71 ) ;
#153 = CARTESIAN_POINT ( 'NONE',  ( -500.0000000000000000, 250.0000000000000000, 10.00000000000000000 ) ) ;
#154 = PLANE ( 'NONE',  #165 ) ;
#155 = EDGE_CURVE ( 'NONE', #59, #152, #26, .T. ) ;
#156 = CARTESIAN_POINT ( 'NONE',  ( -500.0000000000000000, -250.0000000000000000, 10.00000000000000000 ) ) ;
#157 =( NAMED_UNIT ( * ) SI_UNIT ( $, .STERADIAN. ) SOLID_ANGLE_UNIT ( ) );
#158 = SURFACE_STYLE_FILL_AREA ( #74 ) ;
#159 = ORIENTED_EDGE ( 'NONE', *, *, #13, .T. ) ;
#160 = CARTESIAN_POINT ( 'NONE',  ( 500.0000000000000000, -250.0000000000000000, 10.00000000000000000 ) ) ;
#161 = VECTOR ( 'NONE', #139, 1000.000000000000000 ) ;
#162 = VECTOR ( 'NONE', #39, 1000.000000000000000 ) ;
#163 = LINE ( 'NONE', #32, #161 ) ;
#164 = EDGE_CURVE ( 'NONE', #152, #21, #193, .T. ) ;
#165 = AXIS2_PLACEMENT_3D ( 'NONE', #199, #64, #83 ) ;
#166 = SURFACE_STYLE_FILL_AREA ( #169 ) ;
#167 = EDGE_CURVE ( 'NONE', #147, #82, #183, .T. ) ;
#168 = VECTOR ( 'NONE', #117, 1000.000000000000000 ) ;
#169 = FILL_AREA_STYLE ('',( #187 ) ) ;
#170 = DIRECTION ( 'NONE',  ( 0.0000000000000000000, 0.0000000000000000000, 1.000000000000000000 ) ) ;
#171 = DIRECTION ( 'NONE',  ( 0.0000000000000000000, -0.0000000000000000000, 1.000000000000000000 ) ) ;
#172 = PRODUCT ( '6520156_CNAJF00', '6520156_CNAJF00', '', ( #107 ) ) ;
#173 = CARTESIAN_POINT ( 'NONE',  ( 500.0000000000000000, 250.0000000000000000, 10.00000000000000000 ) ) ;
#174 = DIRECTION ( 'NONE',  ( -1.000000000000000000, -0.0000000000000000000, -0.0000000000000000000 ) ) ;
#175 = APPLICATION_CONTEXT ( 'automotive_design' ) ;
#176 = MECHANICAL_DESIGN_GEOMETRIC_PRESENTATION_REPRESENTATION (  '', ( #98 ), #188 ) ;
#177 = AXIS2_PLACEMENT_3D ( 'NONE', #22, #67, #3 ) ;
#178 = EDGE_LOOP ( 'NONE', ( #34, #111, #99, #121 ) ) ;
#179 =( NAMED_UNIT ( * ) PLANE_ANGLE_UNIT ( ) SI_UNIT ( $, .RADIAN. ) );
#180 =( GEOMETRIC_REPRESENTATION_CONTEXT ( 3 ) GLOBAL_UNCERTAINTY_ASSIGNED_CONTEXT ( ( #23 ) ) GLOBAL_UNIT_ASSIGNED_CONTEXT ( ( #4, #35, #157 ) ) REPRESENTATION_CONTEXT ( 'NONE', 'WORKASPACE' ) );
#181 = EDGE_LOOP ( 'NONE', ( #196, #194, #135, #159 ) ) ;
#182 = PRODUCT_DEFINITION_FORMATION_WITH_SPECIFIED_SOURCE ( 'ANY', '', #172, .NOT_KNOWN. ) ;
#183 = LINE ( 'NONE', #132, #28 ) ;
#184 = EDGE_LOOP ( 'NONE', ( #29, #106, #27, #9 ) ) ;
#185 = DIRECTION ( 'NONE',  ( 1.000000000000000000, 0.0000000000000000000, -0.0000000000000000000 ) ) ;
#186 = ADVANCED_FACE ( 'NONE', ( #44 ), #114, .F. ) ;
#187 = FILL_AREA_STYLE_COLOUR ( '', #79 ) ;
#188 =( GEOMETRIC_REPRESENTATION_CONTEXT ( 3 ) GLOBAL_UNCERTAINTY_ASSIGNED_CONTEXT ( ( #7 ) ) GLOBAL_UNIT_ASSIGNED_CONTEXT ( ( #12, #124, #50 ) ) REPRESENTATION_CONTEXT ( 'NONE', 'WORKASPACE' ) );
#189 = VERTEX_POINT ( 'NONE', #20 ) ;
#190 = CARTESIAN_POINT ( 'NONE',  ( 0.0000000000000000000, 0.0000000000000000000, 0.0000000000000000000 ) ) ;
#191 = CARTESIAN_POINT ( 'NONE',  ( 500.0000000000000000, -250.0000000000000000, 10.00000000000000000 ) ) ;
#192 = CARTESIAN_POINT ( 'NONE',  ( -500.0000000000000000, -250.0000000000000000, 10.00000000000000000 ) ) ;
#193 = LINE ( 'NONE', #6, #162 ) ;
#194 = ORIENTED_EDGE ( 'NONE', *, *, #167, .T. ) ;
#195 =( GEOMETRIC_REPRESENTATION_CONTEXT ( 3 ) GLOBAL_UNCERTAINTY_ASSIGNED_CONTEXT ( ( #53 ) ) GLOBAL_UNIT_ASSIGNED_CONTEXT ( ( #76, #179, #94 ) ) REPRESENTATION_CONTEXT ( 'NONE', 'WORKASPACE' ) );
#196 = ORIENTED_EDGE ( 'NONE', *, *, #92, .T. ) ;
#197 = ADVANCED_FACE ( 'NONE', ( #31 ), #2, .F. ) ;
#198 = SURFACE_STYLE_USAGE ( .BOTH. , #16 ) ;
#199 = CARTESIAN_POINT ( 'NONE',  ( 500.0000000000000000, 250.0000000000000000, 10.00000000000000000 ) ) ;
#200 = CARTESIAN_POINT ( 'NONE',  ( -500.0000000000000000, -250.0000000000000000, 10.00000000000000000 ) ) ;
#201 = PRODUCT_RELATED_PRODUCT_CATEGORY ( 'part', '', ( #172 ) ) ;
#202 = DIRECTION ( 'NONE',  ( -0.0000000000000000000, -0.0000000000000000000, 1.000000000000000000 ) ) ;
ENDSEC;
END-ISO-10303-21;
