ISO-10303-21;
HEADER;
FILE_DESCRIPTION (( 'STEP AP214' ),
    '1' );
FILE_NAME ('6520154',
    '2019-02-01T12:48:15',
    ( '' ),
    ('JUGARD+KÜNSTNER GmbH'),
    'SwSTEP 2.0',
    'SolidWorks 2017',
    '' );
FILE_SCHEMA (( 'AUTOMOTIVE_DESIGN' ));
ENDSEC;

DATA;
#1 = PLANE ( 'NONE',  #45 ) ;
#2 = VERTEX_POINT ( 'NONE', #120 ) ;
#3 = DIRECTION ( 'NONE',  ( 0.0000000000000000000, 0.0000000000000000000, -1.000000000000000000 ) ) ;
#4 = DIRECTION ( 'NONE',  ( 0.0000000000000000000, -0.0000000000000000000, -1.000000000000000000 ) ) ;
#5 = LINE ( 'NONE', #15, #172 ) ;
#6 = ORIENTED_EDGE ( 'NONE', *, *, #87, .F. ) ;
#7 = ADVANCED_BREP_SHAPE_REPRESENTATION ( '6520154_CNAJF00', ( #26, #166 ), #37 ) ;
#8 = ORIENTED_EDGE ( 'NONE', *, *, #176, .F. ) ;
#9 = SURFACE_STYLE_USAGE ( .BOTH. , #68 ) ;
#10 = ORIENTED_EDGE ( 'NONE', *, *, #11, .T. ) ;
#11 = EDGE_CURVE ( 'NONE', #85, #55, #130, .T. ) ;
#12 = EDGE_LOOP ( 'NONE', ( #106, #49, #34, #174 ) ) ;
#13 = PLANE ( 'NONE',  #129 ) ;
#14 = VECTOR ( 'NONE', #190, 1000.000000000000000 ) ;
#15 = CARTESIAN_POINT ( 'NONE',  ( -500.0000000000000000, -250.0000000000000000, 8.000000000000000000 ) ) ;
#16 = VECTOR ( 'NONE', #57, 1000.000000000000000 ) ;
#17 = ORIENTED_EDGE ( 'NONE', *, *, #136, .T. ) ;
#18 = PLANE ( 'NONE',  #82 ) ;
#19 = DIRECTION ( 'NONE',  ( 0.0000000000000000000, 0.0000000000000000000, -1.000000000000000000 ) ) ;
#20 = PRODUCT_DEFINITION_SHAPE ( 'NONE', 'NONE',  #185 ) ;
#21 = STYLED_ITEM ( 'NONE', ( #164 ), #26 ) ;
#22 = EDGE_LOOP ( 'NONE', ( #8, #80, #98, #197 ) ) ;
#23 = SURFACE_STYLE_FILL_AREA ( #182 ) ;
#24 = VERTEX_POINT ( 'NONE', #143 ) ;
#25 = VECTOR ( 'NONE', #19, 1000.000000000000000 ) ;
#26 = MANIFOLD_SOLID_BREP ( 'Importiert1', #27 ) ;
#27 = CLOSED_SHELL ( 'NONE', ( #135, #157, #199, #77, #92, #139 ) ) ;
#28 = DIRECTION ( 'NONE',  ( 0.0000000000000000000, -0.0000000000000000000, 1.000000000000000000 ) ) ;
#29 = COLOUR_RGB ( '',0.7529411764705882200, 0.7529411764705882200, 0.7529411764705882200 ) ;
#30 = PLANE ( 'NONE',  #115 ) ;
#31 = CARTESIAN_POINT ( 'NONE',  ( -500.0000000000000000, 250.0000000000000000, 8.000000000000000000 ) ) ;
#32 = DIRECTION ( 'NONE',  ( 0.0000000000000000000, 0.0000000000000000000, 1.000000000000000000 ) ) ;
#33 = DIRECTION ( 'NONE',  ( 0.0000000000000000000, 0.0000000000000000000, 1.000000000000000000 ) ) ;
#34 = ORIENTED_EDGE ( 'NONE', *, *, #136, .F. ) ;
#35 =( LENGTH_UNIT ( ) NAMED_UNIT ( * ) SI_UNIT ( .MILLI., .METRE. ) );
#36 = ORIENTED_EDGE ( 'NONE', *, *, #186, .T. ) ;
#37 =( GEOMETRIC_REPRESENTATION_CONTEXT ( 3 ) GLOBAL_UNCERTAINTY_ASSIGNED_CONTEXT ( ( #56 ) ) GLOBAL_UNIT_ASSIGNED_CONTEXT ( ( #124, #102, #167 ) ) REPRESENTATION_CONTEXT ( 'NONE', 'WORKASPACE' ) );
#38 = VERTEX_POINT ( 'NONE', #46 ) ;
#39 = AXIS2_PLACEMENT_3D ( 'NONE', #173, #83, #28 ) ;
#40 = LINE ( 'NONE', #109, #132 ) ;
#41 = FACE_OUTER_BOUND ( 'NONE', #171, .T. ) ;
#42 = CARTESIAN_POINT ( 'NONE',  ( -500.0000000000000000, 250.0000000000000000, 0.0000000000000000000 ) ) ;
#43 =( NAMED_UNIT ( * ) PLANE_ANGLE_UNIT ( ) SI_UNIT ( $, .RADIAN. ) );
#44 = FILL_AREA_STYLE_COLOUR ( '', #93 ) ;
#45 = AXIS2_PLACEMENT_3D ( 'NONE', #163, #32, #64 ) ;
#46 = CARTESIAN_POINT ( 'NONE',  ( -500.0000000000000000, -250.0000000000000000, 0.0000000000000000000 ) ) ;
#47 = ORIENTED_EDGE ( 'NONE', *, *, #176, .T. ) ;
#48 = CARTESIAN_POINT ( 'NONE',  ( -500.0000000000000000, -250.0000000000000000, 0.0000000000000000000 ) ) ;
#49 = ORIENTED_EDGE ( 'NONE', *, *, #196, .F. ) ;
#50 = DIRECTION ( 'NONE',  ( -0.0000000000000000000, 1.000000000000000000, 0.0000000000000000000 ) ) ;
#51 = CARTESIAN_POINT ( 'NONE',  ( -500.0000000000000000, 250.0000000000000000, 0.0000000000000000000 ) ) ;
#52 = VERTEX_POINT ( 'NONE', #192 ) ;
#53 = MECHANICAL_DESIGN_GEOMETRIC_PRESENTATION_REPRESENTATION (  '', ( #131 ), #178 ) ;
#54 = DIRECTION ( 'NONE',  ( 0.0000000000000000000, 0.0000000000000000000, 1.000000000000000000 ) ) ;
#55 = VERTEX_POINT ( 'NONE', #97 ) ;
#56 = UNCERTAINTY_MEASURE_WITH_UNIT (LENGTH_MEASURE( 1.000000000000000100E-005 ), #124, 'distance_accuracy_value', 'NONE');
#57 = DIRECTION ( 'NONE',  ( 0.0000000000000000000, 1.000000000000000000, -0.0000000000000000000 ) ) ;
#58 = DIRECTION ( 'NONE',  ( -1.000000000000000000, 0.0000000000000000000, 0.0000000000000000000 ) ) ;
#59 = PRODUCT_DEFINITION_FORMATION_WITH_SPECIFIED_SOURCE ( 'ANY', '', #170, .NOT_KNOWN. ) ;
#60 = PRESENTATION_LAYER_ASSIGNMENT (  '', '', ( #21 ) ) ;
#61 = VERTEX_POINT ( 'NONE', #42 ) ;
#62 = CARTESIAN_POINT ( 'NONE',  ( 500.0000000000000000, -250.0000000000000000, 8.000000000000000000 ) ) ;
#63 = DIRECTION ( 'NONE',  ( 1.000000000000000000, 0.0000000000000000000, -0.0000000000000000000 ) ) ;
#64 = DIRECTION ( 'NONE',  ( 1.000000000000000000, 0.0000000000000000000, -0.0000000000000000000 ) ) ;
#65 = LINE ( 'NONE', #151, #148 ) ;
#66 = APPLICATION_PROTOCOL_DEFINITION ( 'draft international standard', 'automotive_design', 1998, #86 ) ;
#67 = SURFACE_STYLE_FILL_AREA ( #140 ) ;
#68 = SURFACE_SIDE_STYLE ('',( #23 ) ) ;
#69 =( NAMED_UNIT ( * ) PLANE_ANGLE_UNIT ( ) SI_UNIT ( $, .RADIAN. ) );
#70 = FACE_OUTER_BOUND ( 'NONE', #22, .T. ) ;
#71 =( NAMED_UNIT ( * ) SI_UNIT ( $, .STERADIAN. ) SOLID_ANGLE_UNIT ( ) );
#72 = LINE ( 'NONE', #110, #25 ) ;
#73 = ORIENTED_EDGE ( 'NONE', *, *, #201, .T. ) ;
#74 = DIRECTION ( 'NONE',  ( 1.000000000000000000, 0.0000000000000000000, 0.0000000000000000000 ) ) ;
#75 = MECHANICAL_DESIGN_GEOMETRIC_PRESENTATION_REPRESENTATION (  '', ( #21 ), #117 ) ;
#76 = SHAPE_DEFINITION_REPRESENTATION ( #20, #7 ) ;
#77 = ADVANCED_FACE ( 'NONE', ( #41 ), #13, .F. ) ;
#78 = VECTOR ( 'NONE', #138, 1000.000000000000000 ) ;
#79 = DIRECTION ( 'NONE',  ( 1.000000000000000000, 0.0000000000000000000, -0.0000000000000000000 ) ) ;
#80 = ORIENTED_EDGE ( 'NONE', *, *, #201, .F. ) ;
#81 =( NAMED_UNIT ( * ) SI_UNIT ( $, .STERADIAN. ) SOLID_ANGLE_UNIT ( ) );
#82 = AXIS2_PLACEMENT_3D ( 'NONE', #99, #33, #122 ) ;
#83 = DIRECTION ( 'NONE',  ( 0.0000000000000000000, 1.000000000000000000, 0.0000000000000000000 ) ) ;
#84 = EDGE_LOOP ( 'NONE', ( #116, #10, #73, #183 ) ) ;
#85 = VERTEX_POINT ( 'NONE', #119 ) ;
#86 = APPLICATION_CONTEXT ( 'automotive_design' ) ;
#87 = EDGE_CURVE ( 'NONE', #2, #52, #5, .T. ) ;
#88 = PRODUCT_DEFINITION_CONTEXT ( 'detailed design', #89, 'design' ) ;
#89 = APPLICATION_CONTEXT ( 'automotive_design' ) ;
#90 = LINE ( 'NONE', #51, #189 ) ;
#91 = PRODUCT_RELATED_PRODUCT_CATEGORY ( 'part', '', ( #170 ) ) ;
#92 = ADVANCED_FACE ( 'NONE', ( #94 ), #96, .F. ) ;
#93 = COLOUR_RGB ( '',1.000000000000000000, 1.000000000000000000, 1.000000000000000000 ) ;
#94 = FACE_OUTER_BOUND ( 'NONE', #101, .T. ) ;
#95 = DIRECTION ( 'NONE',  ( 0.0000000000000000000, 0.0000000000000000000, 1.000000000000000000 ) ) ;
#96 = PLANE ( 'NONE',  #39 ) ;
#97 = CARTESIAN_POINT ( 'NONE',  ( -500.0000000000000000, 250.0000000000000000, 8.000000000000000000 ) ) ;
#98 = ORIENTED_EDGE ( 'NONE', *, *, #154, .F. ) ;
#99 = CARTESIAN_POINT ( 'NONE',  ( -500.0000000000000000, -250.0000000000000000, 8.000000000000000000 ) ) ;
#100 = CARTESIAN_POINT ( 'NONE',  ( 500.0000000000000000, 250.0000000000000000, 8.000000000000000000 ) ) ;
#101 = EDGE_LOOP ( 'NONE', ( #177, #6, #47, #17 ) ) ;
#102 =( NAMED_UNIT ( * ) PLANE_ANGLE_UNIT ( ) SI_UNIT ( $, .RADIAN. ) );
#103 = UNCERTAINTY_MEASURE_WITH_UNIT (LENGTH_MEASURE( 1.000000000000000100E-005 ), #35, 'distance_accuracy_value', 'NONE');
#104 = LINE ( 'NONE', #31, #118 ) ;
#105 = FACE_OUTER_BOUND ( 'NONE', #134, .T. ) ;
#106 = ORIENTED_EDGE ( 'NONE', *, *, #186, .F. ) ;
#107 = DIRECTION ( 'NONE',  ( 0.0000000000000000000, 0.0000000000000000000, 1.000000000000000000 ) ) ;
#108 = DIRECTION ( 'NONE',  ( 0.0000000000000000000, -1.000000000000000000, -0.0000000000000000000 ) ) ;
#109 = CARTESIAN_POINT ( 'NONE',  ( -500.0000000000000000, 250.0000000000000000, 8.000000000000000000 ) ) ;
#110 = CARTESIAN_POINT ( 'NONE',  ( -500.0000000000000000, -250.0000000000000000, 8.000000000000000000 ) ) ;
#111 = FACE_OUTER_BOUND ( 'NONE', #84, .T. ) ;
#112 = EDGE_CURVE ( 'NONE', #52, #85, #153, .T. ) ;
#113 = APPLICATION_PROTOCOL_DEFINITION ( 'draft international standard', 'automotive_design', 1998, #89 ) ;
#114 = UNCERTAINTY_MEASURE_WITH_UNIT (LENGTH_MEASURE( 1.000000000000000100E-005 ), #202, 'distance_accuracy_value', 'NONE');
#115 = AXIS2_PLACEMENT_3D ( 'NONE', #146, #127, #3 ) ;
#116 = ORIENTED_EDGE ( 'NONE', *, *, #112, .T. ) ;
#117 =( GEOMETRIC_REPRESENTATION_CONTEXT ( 3 ) GLOBAL_UNCERTAINTY_ASSIGNED_CONTEXT ( ( #114 ) ) GLOBAL_UNIT_ASSIGNED_CONTEXT ( ( #202, #43, #81 ) ) REPRESENTATION_CONTEXT ( 'NONE', 'WORKASPACE' ) );
#118 = VECTOR ( 'NONE', #108, 1000.000000000000000 ) ;
#119 = CARTESIAN_POINT ( 'NONE',  ( 500.0000000000000000, 250.0000000000000000, 8.000000000000000000 ) ) ;
#120 = CARTESIAN_POINT ( 'NONE',  ( -500.0000000000000000, -250.0000000000000000, 8.000000000000000000 ) ) ;
#121 = ORIENTED_EDGE ( 'NONE', *, *, #112, .F. ) ;
#122 = DIRECTION ( 'NONE',  ( 1.000000000000000000, 0.0000000000000000000, -0.0000000000000000000 ) ) ;
#123 = DIRECTION ( 'NONE',  ( -0.0000000000000000000, -0.0000000000000000000, 1.000000000000000000 ) ) ;
#124 =( LENGTH_UNIT ( ) NAMED_UNIT ( * ) SI_UNIT ( .MILLI., .METRE. ) );
#125 = DIRECTION ( 'NONE',  ( 0.0000000000000000000, -1.000000000000000000, -0.0000000000000000000 ) ) ;
#126 = LINE ( 'NONE', #165, #184 ) ;
#127 = DIRECTION ( 'NONE',  ( 1.000000000000000000, 0.0000000000000000000, 0.0000000000000000000 ) ) ;
#128 = EDGE_CURVE ( 'NONE', #24, #85, #188, .T. ) ;
#129 = AXIS2_PLACEMENT_3D ( 'NONE', #62, #58, #95 ) ;
#130 = LINE ( 'NONE', #158, #14 ) ;
#131 = STYLED_ITEM ( 'NONE', ( #137 ), #7 ) ;
#132 = VECTOR ( 'NONE', #123, 1000.000000000000000 ) ;
#133 = PRODUCT_CONTEXT ( 'NONE', #86, 'mechanical' ) ;
#134 = EDGE_LOOP ( 'NONE', ( #187, #198, #168, #36 ) ) ;
#135 = ADVANCED_FACE ( 'NONE', ( #156 ), #1, .F. ) ;
#136 = EDGE_CURVE ( 'NONE', #38, #144, #142, .T. ) ;
#137 = PRESENTATION_STYLE_ASSIGNMENT (( #9 ) ) ;
#138 = DIRECTION ( 'NONE',  ( -0.0000000000000000000, 0.0000000000000000000, 1.000000000000000000 ) ) ;
#139 = ADVANCED_FACE ( 'NONE', ( #111 ), #18, .T. ) ;
#140 = FILL_AREA_STYLE ('',( #44 ) ) ;
#141 = EDGE_CURVE ( 'NONE', #61, #38, #65, .T. ) ;
#142 = LINE ( 'NONE', #48, #159 ) ;
#143 = CARTESIAN_POINT ( 'NONE',  ( 500.0000000000000000, 250.0000000000000000, 0.0000000000000000000 ) ) ;
#144 = VERTEX_POINT ( 'NONE', #193 ) ;
#145 = CARTESIAN_POINT ( 'NONE',  ( 500.0000000000000000, 250.0000000000000000, 8.000000000000000000 ) ) ;
#146 = CARTESIAN_POINT ( 'NONE',  ( -500.0000000000000000, 250.0000000000000000, 8.000000000000000000 ) ) ;
#147 = PLANE ( 'NONE',  #175 ) ;
#148 = VECTOR ( 'NONE', #125, 1000.000000000000000 ) ;
#149 = CARTESIAN_POINT ( 'NONE',  ( 0.0000000000000000000, 0.0000000000000000000, 0.0000000000000000000 ) ) ;
#150 = CARTESIAN_POINT ( 'NONE',  ( 500.0000000000000000, -250.0000000000000000, 0.0000000000000000000 ) ) ;
#151 = CARTESIAN_POINT ( 'NONE',  ( -500.0000000000000000, -250.0000000000000000, 0.0000000000000000000 ) ) ;
#152 = PRESENTATION_LAYER_ASSIGNMENT (  '', '', ( #131 ) ) ;
#153 = LINE ( 'NONE', #162, #16 ) ;
#154 = EDGE_CURVE ( 'NONE', #61, #55, #40, .T. ) ;
#155 = ORIENTED_EDGE ( 'NONE', *, *, #128, .T. ) ;
#156 = FACE_OUTER_BOUND ( 'NONE', #12, .T. ) ;
#157 = ADVANCED_FACE ( 'NONE', ( #70 ), #30, .F. ) ;
#158 = CARTESIAN_POINT ( 'NONE',  ( 500.0000000000000000, 250.0000000000000000, 8.000000000000000000 ) ) ;
#159 = VECTOR ( 'NONE', #63, 1000.000000000000000 ) ;
#160 = ORIENTED_EDGE ( 'NONE', *, *, #169, .F. ) ;
#161 = SURFACE_SIDE_STYLE ('',( #67 ) ) ;
#162 = CARTESIAN_POINT ( 'NONE',  ( 500.0000000000000000, -250.0000000000000000, 8.000000000000000000 ) ) ;
#163 = CARTESIAN_POINT ( 'NONE',  ( -500.0000000000000000, -250.0000000000000000, 0.0000000000000000000 ) ) ;
#164 = PRESENTATION_STYLE_ASSIGNMENT (( #200 ) ) ;
#165 = CARTESIAN_POINT ( 'NONE',  ( 500.0000000000000000, -250.0000000000000000, 8.000000000000000000 ) ) ;
#166 = AXIS2_PLACEMENT_3D ( 'NONE', #149, #54, #74 ) ;
#167 =( NAMED_UNIT ( * ) SI_UNIT ( $, .STERADIAN. ) SOLID_ANGLE_UNIT ( ) );
#168 = ORIENTED_EDGE ( 'NONE', *, *, #128, .F. ) ;
#169 = EDGE_CURVE ( 'NONE', #144, #52, #126, .T. ) ;
#170 = PRODUCT ( '6520154_CNAJF00', '6520154_CNAJF00', '', ( #133 ) ) ;
#171 = EDGE_LOOP ( 'NONE', ( #155, #121, #160, #191 ) ) ;
#172 = VECTOR ( 'NONE', #79, 1000.000000000000000 ) ;
#173 = CARTESIAN_POINT ( 'NONE',  ( -500.0000000000000000, -250.0000000000000000, 8.000000000000000000 ) ) ;
#174 = ORIENTED_EDGE ( 'NONE', *, *, #141, .F. ) ;
#175 = AXIS2_PLACEMENT_3D ( 'NONE', #100, #195, #4 ) ;
#176 = EDGE_CURVE ( 'NONE', #2, #38, #72, .T. ) ;
#177 = ORIENTED_EDGE ( 'NONE', *, *, #169, .T. ) ;
#178 =( GEOMETRIC_REPRESENTATION_CONTEXT ( 3 ) GLOBAL_UNCERTAINTY_ASSIGNED_CONTEXT ( ( #103 ) ) GLOBAL_UNIT_ASSIGNED_CONTEXT ( ( #35, #69, #71 ) ) REPRESENTATION_CONTEXT ( 'NONE', 'WORKASPACE' ) );
#179 = DIRECTION ( 'NONE',  ( -1.000000000000000000, -0.0000000000000000000, 0.0000000000000000000 ) ) ;
#180 = FILL_AREA_STYLE_COLOUR ( '', #29 ) ;
#181 = VECTOR ( 'NONE', #50, 1000.000000000000000 ) ;
#182 = FILL_AREA_STYLE ('',( #180 ) ) ;
#183 = ORIENTED_EDGE ( 'NONE', *, *, #87, .T. ) ;
#184 = VECTOR ( 'NONE', #107, 1000.000000000000000 ) ;
#185 = PRODUCT_DEFINITION ( 'UNKNOWN', '', #59, #88 ) ;
#186 = EDGE_CURVE ( 'NONE', #24, #61, #90, .T. ) ;
#187 = ORIENTED_EDGE ( 'NONE', *, *, #154, .T. ) ;
#188 = LINE ( 'NONE', #145, #78 ) ;
#189 = VECTOR ( 'NONE', #179, 1000.000000000000000 ) ;
#190 = DIRECTION ( 'NONE',  ( -1.000000000000000000, -0.0000000000000000000, -0.0000000000000000000 ) ) ;
#191 = ORIENTED_EDGE ( 'NONE', *, *, #196, .T. ) ;
#192 = CARTESIAN_POINT ( 'NONE',  ( 500.0000000000000000, -250.0000000000000000, 8.000000000000000000 ) ) ;
#193 = CARTESIAN_POINT ( 'NONE',  ( 500.0000000000000000, -250.0000000000000000, 0.0000000000000000000 ) ) ;
#194 = LINE ( 'NONE', #150, #181 ) ;
#195 = DIRECTION ( 'NONE',  ( 0.0000000000000000000, -1.000000000000000000, 0.0000000000000000000 ) ) ;
#196 = EDGE_CURVE ( 'NONE', #144, #24, #194, .T. ) ;
#197 = ORIENTED_EDGE ( 'NONE', *, *, #141, .T. ) ;
#198 = ORIENTED_EDGE ( 'NONE', *, *, #11, .F. ) ;
#199 = ADVANCED_FACE ( 'NONE', ( #105 ), #147, .F. ) ;
#200 = SURFACE_STYLE_USAGE ( .BOTH. , #161 ) ;
#201 = EDGE_CURVE ( 'NONE', #55, #2, #104, .T. ) ;
#202 =( LENGTH_UNIT ( ) NAMED_UNIT ( * ) SI_UNIT ( .MILLI., .METRE. ) );
ENDSEC;
END-ISO-10303-21;
