ISO-10303-21;
HEADER;
FILE_DESCRIPTION (( 'STEP AP214' ),
    '1' );
FILE_NAME ('6520150',
    '2019-02-01T12:50:01',
    ( '' ),
    ('JUGARD+KÜNSTNER GmbH'),
    'SwSTEP 2.0',
    'SolidWorks 2017',
    '' );
FILE_SCHEMA (( 'AUTOMOTIVE_DESIGN' ));
ENDSEC;

DATA;
#1 = ADVANCED_FACE ( 'NONE', ( #197 ), #141, .F. ) ;
#2 = DIRECTION ( 'NONE',  ( -0.0000000000000000000, 0.0000000000000000000, 1.000000000000000000 ) ) ;
#3 = PRESENTATION_STYLE_ASSIGNMENT (( #5 ) ) ;
#4 = FACE_OUTER_BOUND ( 'NONE', #96, .T. ) ;
#5 = SURFACE_STYLE_USAGE ( .BOTH. , #108 ) ;
#6 = APPLICATION_CONTEXT ( 'automotive_design' ) ;
#7 = CARTESIAN_POINT ( 'NONE',  ( -500.0000000000000000, -250.0000000000000000, 5.000000000000000000 ) ) ;
#8 = CARTESIAN_POINT ( 'NONE',  ( -500.0000000000000000, 250.0000000000000000, 5.000000000000000000 ) ) ;
#9 = LINE ( 'NONE', #56, #32 ) ;
#10 =( LENGTH_UNIT ( ) NAMED_UNIT ( * ) SI_UNIT ( .MILLI., .METRE. ) );
#11 = LINE ( 'NONE', #84, #187 ) ;
#12 = EDGE_CURVE ( 'NONE', #146, #137, #156, .T. ) ;
#13 = ORIENTED_EDGE ( 'NONE', *, *, #91, .F. ) ;
#14 = CARTESIAN_POINT ( 'NONE',  ( -500.0000000000000000, 250.0000000000000000, 5.000000000000000000 ) ) ;
#15 = CARTESIAN_POINT ( 'NONE',  ( 500.0000000000000000, -250.0000000000000000, 5.000000000000000000 ) ) ;
#16 = ADVANCED_FACE ( 'NONE', ( #4 ), #202, .F. ) ;
#17 = UNCERTAINTY_MEASURE_WITH_UNIT (LENGTH_MEASURE( 1.000000000000000100E-005 ), #105, 'distance_accuracy_value', 'NONE');
#18 = DIRECTION ( 'NONE',  ( 0.0000000000000000000, 1.000000000000000000, 0.0000000000000000000 ) ) ;
#19 = CARTESIAN_POINT ( 'NONE',  ( 500.0000000000000000, -250.0000000000000000, 0.0000000000000000000 ) ) ;
#20 = ORIENTED_EDGE ( 'NONE', *, *, #44, .T. ) ;
#21 = EDGE_CURVE ( 'NONE', #134, #148, #170, .T. ) ;
#22 = ORIENTED_EDGE ( 'NONE', *, *, #182, .T. ) ;
#23 = DIRECTION ( 'NONE',  ( -1.000000000000000000, -0.0000000000000000000, -0.0000000000000000000 ) ) ;
#24 = PRESENTATION_LAYER_ASSIGNMENT (  '', '', ( #112 ) ) ;
#25 = PLANE ( 'NONE',  #76 ) ;
#26 = ORIENTED_EDGE ( 'NONE', *, *, #164, .F. ) ;
#27 = DIRECTION ( 'NONE',  ( 0.0000000000000000000, -1.000000000000000000, -0.0000000000000000000 ) ) ;
#28 = SURFACE_STYLE_FILL_AREA ( #69 ) ;
#29 = ORIENTED_EDGE ( 'NONE', *, *, #184, .T. ) ;
#30 = PRODUCT_DEFINITION_FORMATION_WITH_SPECIFIED_SOURCE ( 'ANY', '', #139, .NOT_KNOWN. ) ;
#31 = SHAPE_DEFINITION_REPRESENTATION ( #138, #189 ) ;
#32 = VECTOR ( 'NONE', #171, 1000.000000000000000 ) ;
#33 = ORIENTED_EDGE ( 'NONE', *, *, #129, .F. ) ;
#34 = EDGE_CURVE ( 'NONE', #137, #93, #9, .T. ) ;
#35 = FACE_OUTER_BOUND ( 'NONE', #188, .T. ) ;
#36 = ORIENTED_EDGE ( 'NONE', *, *, #21, .F. ) ;
#37 =( NAMED_UNIT ( * ) SI_UNIT ( $, .STERADIAN. ) SOLID_ANGLE_UNIT ( ) );
#38 = DIRECTION ( 'NONE',  ( 1.000000000000000000, 0.0000000000000000000, 0.0000000000000000000 ) ) ;
#39 = VECTOR ( 'NONE', #2, 1000.000000000000000 ) ;
#40 = DIRECTION ( 'NONE',  ( 0.0000000000000000000, -0.0000000000000000000, -1.000000000000000000 ) ) ;
#41 = SURFACE_STYLE_USAGE ( .BOTH. , #132 ) ;
#42 = CARTESIAN_POINT ( 'NONE',  ( 500.0000000000000000, 250.0000000000000000, 5.000000000000000000 ) ) ;
#43 = COLOUR_RGB ( '',1.000000000000000000, 1.000000000000000000, 1.000000000000000000 ) ;
#44 = EDGE_CURVE ( 'NONE', #102, #148, #50, .T. ) ;
#45 = PRODUCT_CONTEXT ( 'NONE', #166, 'mechanical' ) ;
#46 = LINE ( 'NONE', #7, #173 ) ;
#47 = DIRECTION ( 'NONE',  ( 0.0000000000000000000, 0.0000000000000000000, 1.000000000000000000 ) ) ;
#48 = AXIS2_PLACEMENT_3D ( 'NONE', #79, #47, #90 ) ;
#49 = DIRECTION ( 'NONE',  ( -1.000000000000000000, 0.0000000000000000000, 0.0000000000000000000 ) ) ;
#50 = LINE ( 'NONE', #15, #118 ) ;
#51 = VECTOR ( 'NONE', #119, 1000.000000000000000 ) ;
#52 = PRESENTATION_LAYER_ASSIGNMENT (  '', '', ( #168 ) ) ;
#53 = ADVANCED_FACE ( 'NONE', ( #35 ), #98, .F. ) ;
#54 =( GEOMETRIC_REPRESENTATION_CONTEXT ( 3 ) GLOBAL_UNCERTAINTY_ASSIGNED_CONTEXT ( ( #17 ) ) GLOBAL_UNIT_ASSIGNED_CONTEXT ( ( #105, #107, #176 ) ) REPRESENTATION_CONTEXT ( 'NONE', 'WORKASPACE' ) );
#55 = EDGE_LOOP ( 'NONE', ( #109, #13, #83, #68 ) ) ;
#56 = CARTESIAN_POINT ( 'NONE',  ( -500.0000000000000000, -250.0000000000000000, 0.0000000000000000000 ) ) ;
#57 = VECTOR ( 'NONE', #131, 1000.000000000000000 ) ;
#58 = CARTESIAN_POINT ( 'NONE',  ( -500.0000000000000000, 250.0000000000000000, 0.0000000000000000000 ) ) ;
#59 = UNCERTAINTY_MEASURE_WITH_UNIT (LENGTH_MEASURE( 1.000000000000000100E-005 ), #10, 'distance_accuracy_value', 'NONE');
#60 = EDGE_CURVE ( 'NONE', #93, #102, #11, .T. ) ;
#61 = CARTESIAN_POINT ( 'NONE',  ( -500.0000000000000000, 250.0000000000000000, 5.000000000000000000 ) ) ;
#62 = COLOUR_RGB ( '',0.7529411764705882200, 0.7529411764705882200, 0.7529411764705882200 ) ;
#63 = ORIENTED_EDGE ( 'NONE', *, *, #60, .F. ) ;
#64 = ORIENTED_EDGE ( 'NONE', *, *, #121, .T. ) ;
#65 = PRODUCT_RELATED_PRODUCT_CATEGORY ( 'part', '', ( #139 ) ) ;
#66 = ORIENTED_EDGE ( 'NONE', *, *, #121, .F. ) ;
#67 = PRODUCT_DEFINITION ( 'UNKNOWN', '', #30, #154 ) ;
#68 = ORIENTED_EDGE ( 'NONE', *, *, #12, .F. ) ;
#69 = FILL_AREA_STYLE ('',( #190 ) ) ;
#70 = AXIS2_PLACEMENT_3D ( 'NONE', #42, #157, #40 ) ;
#71 = VECTOR ( 'NONE', #179, 1000.000000000000000 ) ;
#72 = ORIENTED_EDGE ( 'NONE', *, *, #182, .F. ) ;
#73 = DIRECTION ( 'NONE',  ( 0.0000000000000000000, 1.000000000000000000, -0.0000000000000000000 ) ) ;
#74 = UNCERTAINTY_MEASURE_WITH_UNIT (LENGTH_MEASURE( 1.000000000000000100E-005 ), #116, 'distance_accuracy_value', 'NONE');
#75 = FILL_AREA_STYLE ('',( #196 ) ) ;
#76 = AXIS2_PLACEMENT_3D ( 'NONE', #178, #49, #192 ) ;
#77 = CARTESIAN_POINT ( 'NONE',  ( 0.0000000000000000000, 0.0000000000000000000, 0.0000000000000000000 ) ) ;
#78 = CARTESIAN_POINT ( 'NONE',  ( -500.0000000000000000, 250.0000000000000000, 0.0000000000000000000 ) ) ;
#79 = CARTESIAN_POINT ( 'NONE',  ( -500.0000000000000000, -250.0000000000000000, 5.000000000000000000 ) ) ;
#80 =( GEOMETRIC_REPRESENTATION_CONTEXT ( 3 ) GLOBAL_UNCERTAINTY_ASSIGNED_CONTEXT ( ( #59 ) ) GLOBAL_UNIT_ASSIGNED_CONTEXT ( ( #10, #127, #165 ) ) REPRESENTATION_CONTEXT ( 'NONE', 'WORKASPACE' ) );
#81 = PRESENTATION_STYLE_ASSIGNMENT (( #41 ) ) ;
#82 = LINE ( 'NONE', #172, #51 ) ;
#83 = ORIENTED_EDGE ( 'NONE', *, *, #34, .F. ) ;
#84 = CARTESIAN_POINT ( 'NONE',  ( 500.0000000000000000, -250.0000000000000000, 5.000000000000000000 ) ) ;
#85 = FACE_OUTER_BOUND ( 'NONE', #100, .T. ) ;
#86 = CARTESIAN_POINT ( 'NONE',  ( -500.0000000000000000, -250.0000000000000000, 0.0000000000000000000 ) ) ;
#87 = VECTOR ( 'NONE', #27, 1000.000000000000000 ) ;
#88 = VERTEX_POINT ( 'NONE', #14 ) ;
#89 = DIRECTION ( 'NONE',  ( 0.0000000000000000000, 0.0000000000000000000, 1.000000000000000000 ) ) ;
#90 = DIRECTION ( 'NONE',  ( 1.000000000000000000, 0.0000000000000000000, -0.0000000000000000000 ) ) ;
#91 = EDGE_CURVE ( 'NONE', #93, #134, #82, .T. ) ;
#92 = VECTOR ( 'NONE', #180, 1000.000000000000000 ) ;
#93 = VERTEX_POINT ( 'NONE', #19 ) ;
#94 = ORIENTED_EDGE ( 'NONE', *, *, #129, .T. ) ;
#95 = MANIFOLD_SOLID_BREP ( 'Importiert1', #140 ) ;
#96 = EDGE_LOOP ( 'NONE', ( #185, #66, #33, #106 ) ) ;
#97 = PLANE ( 'NONE',  #175 ) ;
#98 = PLANE ( 'NONE',  #70 ) ;
#99 = AXIS2_PLACEMENT_3D ( 'NONE', #130, #38, #142 ) ;
#100 = EDGE_LOOP ( 'NONE', ( #20, #114, #64, #22 ) ) ;
#101 = CARTESIAN_POINT ( 'NONE',  ( -500.0000000000000000, -250.0000000000000000, 5.000000000000000000 ) ) ;
#102 = VERTEX_POINT ( 'NONE', #186 ) ;
#103 = ORIENTED_EDGE ( 'NONE', *, *, #34, .T. ) ;
#104 = PLANE ( 'NONE',  #48 ) ;
#105 =( LENGTH_UNIT ( ) NAMED_UNIT ( * ) SI_UNIT ( .MILLI., .METRE. ) );
#106 = ORIENTED_EDGE ( 'NONE', *, *, #12, .T. ) ;
#107 =( NAMED_UNIT ( * ) PLANE_ANGLE_UNIT ( ) SI_UNIT ( $, .RADIAN. ) );
#108 = SURFACE_SIDE_STYLE ('',( #136 ) ) ;
#109 = ORIENTED_EDGE ( 'NONE', *, *, #184, .F. ) ;
#110 = VECTOR ( 'NONE', #126, 1000.000000000000000 ) ;
#111 = ORIENTED_EDGE ( 'NONE', *, *, #60, .T. ) ;
#112 = STYLED_ITEM ( 'NONE', ( #3 ), #189 ) ;
#113 = FACE_OUTER_BOUND ( 'NONE', #191, .T. ) ;
#114 = ORIENTED_EDGE ( 'NONE', *, *, #164, .T. ) ;
#115 = ADVANCED_FACE ( 'NONE', ( #201 ), #97, .F. ) ;
#116 =( LENGTH_UNIT ( ) NAMED_UNIT ( * ) SI_UNIT ( .MILLI., .METRE. ) );
#117 = DIRECTION ( 'NONE',  ( 0.0000000000000000000, -0.0000000000000000000, 1.000000000000000000 ) ) ;
#118 = VECTOR ( 'NONE', #73, 1000.000000000000000 ) ;
#119 = DIRECTION ( 'NONE',  ( -0.0000000000000000000, 1.000000000000000000, 0.0000000000000000000 ) ) ;
#120 = CARTESIAN_POINT ( 'NONE',  ( 500.0000000000000000, 250.0000000000000000, 5.000000000000000000 ) ) ;
#121 = EDGE_CURVE ( 'NONE', #88, #153, #151, .T. ) ;
#122 = ORIENTED_EDGE ( 'NONE', *, *, #21, .T. ) ;
#123 = DIRECTION ( 'NONE',  ( 0.0000000000000000000, 0.0000000000000000000, 1.000000000000000000 ) ) ;
#124 = APPLICATION_PROTOCOL_DEFINITION ( 'draft international standard', 'automotive_design', 1998, #6 ) ;
#125 = CARTESIAN_POINT ( 'NONE',  ( -500.0000000000000000, -250.0000000000000000, 5.000000000000000000 ) ) ;
#126 = DIRECTION ( 'NONE',  ( -0.0000000000000000000, -0.0000000000000000000, 1.000000000000000000 ) ) ;
#127 =( NAMED_UNIT ( * ) PLANE_ANGLE_UNIT ( ) SI_UNIT ( $, .RADIAN. ) );
#128 = LINE ( 'NONE', #8, #110 ) ;
#129 = EDGE_CURVE ( 'NONE', #146, #88, #128, .T. ) ;
#130 = CARTESIAN_POINT ( 'NONE',  ( -500.0000000000000000, 250.0000000000000000, 5.000000000000000000 ) ) ;
#131 = DIRECTION ( 'NONE',  ( 0.0000000000000000000, -1.000000000000000000, -0.0000000000000000000 ) ) ;
#132 = SURFACE_SIDE_STYLE ('',( #28 ) ) ;
#133 = LINE ( 'NONE', #150, #183 ) ;
#134 = VERTEX_POINT ( 'NONE', #162 ) ;
#135 = CARTESIAN_POINT ( 'NONE',  ( -500.0000000000000000, -250.0000000000000000, 5.000000000000000000 ) ) ;
#136 = SURFACE_STYLE_FILL_AREA ( #75 ) ;
#137 = VERTEX_POINT ( 'NONE', #194 ) ;
#138 = PRODUCT_DEFINITION_SHAPE ( 'NONE', 'NONE',  #67 ) ;
#139 = PRODUCT ( '6520150_CNAJF00', '6520150_CNAJF00', '', ( #45 ) ) ;
#140 = CLOSED_SHELL ( 'NONE', ( #115, #16, #53, #155, #1, #160 ) ) ;
#141 = PLANE ( 'NONE',  #158 ) ;
#142 = DIRECTION ( 'NONE',  ( 0.0000000000000000000, 0.0000000000000000000, -1.000000000000000000 ) ) ;
#143 =( GEOMETRIC_REPRESENTATION_CONTEXT ( 3 ) GLOBAL_UNCERTAINTY_ASSIGNED_CONTEXT ( ( #74 ) ) GLOBAL_UNIT_ASSIGNED_CONTEXT ( ( #116, #145, #37 ) ) REPRESENTATION_CONTEXT ( 'NONE', 'WORKASPACE' ) );
#144 = DIRECTION ( 'NONE',  ( 0.0000000000000000000, 0.0000000000000000000, 1.000000000000000000 ) ) ;
#145 =( NAMED_UNIT ( * ) PLANE_ANGLE_UNIT ( ) SI_UNIT ( $, .RADIAN. ) );
#146 = VERTEX_POINT ( 'NONE', #58 ) ;
#147 = CARTESIAN_POINT ( 'NONE',  ( -500.0000000000000000, -250.0000000000000000, 0.0000000000000000000 ) ) ;
#148 = VERTEX_POINT ( 'NONE', #149 ) ;
#149 = CARTESIAN_POINT ( 'NONE',  ( 500.0000000000000000, 250.0000000000000000, 5.000000000000000000 ) ) ;
#150 = CARTESIAN_POINT ( 'NONE',  ( 500.0000000000000000, 250.0000000000000000, 5.000000000000000000 ) ) ;
#151 = LINE ( 'NONE', #61, #87 ) ;
#152 = LINE ( 'NONE', #125, #92 ) ;
#153 = VERTEX_POINT ( 'NONE', #135 ) ;
#154 = PRODUCT_DEFINITION_CONTEXT ( 'detailed design', #6, 'design' ) ;
#155 = ADVANCED_FACE ( 'NONE', ( #113 ), #25, .F. ) ;
#156 = LINE ( 'NONE', #86, #57 ) ;
#157 = DIRECTION ( 'NONE',  ( 0.0000000000000000000, -1.000000000000000000, 0.0000000000000000000 ) ) ;
#158 = AXIS2_PLACEMENT_3D ( 'NONE', #101, #18, #117 ) ;
#159 = EDGE_LOOP ( 'NONE', ( #111, #72, #167, #103 ) ) ;
#160 = ADVANCED_FACE ( 'NONE', ( #85 ), #104, .T. ) ;
#161 = APPLICATION_PROTOCOL_DEFINITION ( 'draft international standard', 'automotive_design', 1998, #166 ) ;
#162 = CARTESIAN_POINT ( 'NONE',  ( 500.0000000000000000, 250.0000000000000000, 0.0000000000000000000 ) ) ;
#163 = LINE ( 'NONE', #78, #71 ) ;
#164 = EDGE_CURVE ( 'NONE', #148, #88, #133, .T. ) ;
#165 =( NAMED_UNIT ( * ) SI_UNIT ( $, .STERADIAN. ) SOLID_ANGLE_UNIT ( ) );
#166 = APPLICATION_CONTEXT ( 'automotive_design' ) ;
#167 = ORIENTED_EDGE ( 'NONE', *, *, #199, .T. ) ;
#168 = STYLED_ITEM ( 'NONE', ( #81 ), #95 ) ;
#169 = MECHANICAL_DESIGN_GEOMETRIC_PRESENTATION_REPRESENTATION (  '', ( #112 ), #54 ) ;
#170 = LINE ( 'NONE', #120, #39 ) ;
#171 = DIRECTION ( 'NONE',  ( 1.000000000000000000, 0.0000000000000000000, -0.0000000000000000000 ) ) ;
#172 = CARTESIAN_POINT ( 'NONE',  ( 500.0000000000000000, -250.0000000000000000, 0.0000000000000000000 ) ) ;
#173 = VECTOR ( 'NONE', #195, 1000.000000000000000 ) ;
#174 = MECHANICAL_DESIGN_GEOMETRIC_PRESENTATION_REPRESENTATION (  '', ( #168 ), #143 ) ;
#175 = AXIS2_PLACEMENT_3D ( 'NONE', #147, #123, #177 ) ;
#176 =( NAMED_UNIT ( * ) SI_UNIT ( $, .STERADIAN. ) SOLID_ANGLE_UNIT ( ) );
#177 = DIRECTION ( 'NONE',  ( 1.000000000000000000, 0.0000000000000000000, -0.0000000000000000000 ) ) ;
#178 = CARTESIAN_POINT ( 'NONE',  ( 500.0000000000000000, -250.0000000000000000, 5.000000000000000000 ) ) ;
#179 = DIRECTION ( 'NONE',  ( -1.000000000000000000, -0.0000000000000000000, 0.0000000000000000000 ) ) ;
#180 = DIRECTION ( 'NONE',  ( 1.000000000000000000, 0.0000000000000000000, -0.0000000000000000000 ) ) ;
#181 = ORIENTED_EDGE ( 'NONE', *, *, #91, .T. ) ;
#182 = EDGE_CURVE ( 'NONE', #153, #102, #152, .T. ) ;
#183 = VECTOR ( 'NONE', #23, 1000.000000000000000 ) ;
#184 = EDGE_CURVE ( 'NONE', #134, #146, #163, .T. ) ;
#185 = ORIENTED_EDGE ( 'NONE', *, *, #199, .F. ) ;
#186 = CARTESIAN_POINT ( 'NONE',  ( 500.0000000000000000, -250.0000000000000000, 5.000000000000000000 ) ) ;
#187 = VECTOR ( 'NONE', #144, 1000.000000000000000 ) ;
#188 = EDGE_LOOP ( 'NONE', ( #94, #26, #36, #29 ) ) ;
#189 = ADVANCED_BREP_SHAPE_REPRESENTATION ( '6520150_CNAJF00', ( #95, #198 ), #80 ) ;
#190 = FILL_AREA_STYLE_COLOUR ( '', #43 ) ;
#191 = EDGE_LOOP ( 'NONE', ( #122, #200, #63, #181 ) ) ;
#192 = DIRECTION ( 'NONE',  ( 0.0000000000000000000, 0.0000000000000000000, 1.000000000000000000 ) ) ;
#193 = DIRECTION ( 'NONE',  ( 1.000000000000000000, 0.0000000000000000000, 0.0000000000000000000 ) ) ;
#194 = CARTESIAN_POINT ( 'NONE',  ( -500.0000000000000000, -250.0000000000000000, 0.0000000000000000000 ) ) ;
#195 = DIRECTION ( 'NONE',  ( 0.0000000000000000000, 0.0000000000000000000, -1.000000000000000000 ) ) ;
#196 = FILL_AREA_STYLE_COLOUR ( '', #62 ) ;
#197 = FACE_OUTER_BOUND ( 'NONE', #159, .T. ) ;
#198 = AXIS2_PLACEMENT_3D ( 'NONE', #77, #89, #193 ) ;
#199 = EDGE_CURVE ( 'NONE', #153, #137, #46, .T. ) ;
#200 = ORIENTED_EDGE ( 'NONE', *, *, #44, .F. ) ;
#201 = FACE_OUTER_BOUND ( 'NONE', #55, .T. ) ;
#202 = PLANE ( 'NONE',  #99 ) ;
ENDSEC;
END-ISO-10303-21;
