ISO-10303-21;
HEADER;
FILE_DESCRIPTION (( 'STEP AP214' ),
    '1' );
FILE_NAME ('6510051',
    '2019-02-01T12:50:16',
    ( '' ),
    ('JUGARD+KÜNSTNER GmbH'),
    'SwSTEP 2.0',
    'SolidWorks 2017',
    '' );
FILE_SCHEMA (( 'AUTOMOTIVE_DESIGN' ));
ENDSEC;

DATA;
#1 = ORIENTED_EDGE ( 'NONE', *, *, #44, .F. ) ;
#2 = CARTESIAN_POINT ( 'NONE',  ( -500.0000000000000000, -250.0000000000000000, 0.0000000000000000000 ) ) ;
#3 = FILL_AREA_STYLE ('',( #5 ) ) ;
#4 = ORIENTED_EDGE ( 'NONE', *, *, #33, .F. ) ;
#5 = FILL_AREA_STYLE_COLOUR ( '', #13 ) ;
#6 = MECHANICAL_DESIGN_GEOMETRIC_PRESENTATION_REPRESENTATION (  '', ( #143 ), #39 ) ;
#7 = CARTESIAN_POINT ( 'NONE',  ( -500.0000000000000000, -250.0000000000000000, 5.000000000000000000 ) ) ;
#8 = VECTOR ( 'NONE', #109, 1000.000000000000000 ) ;
#9 = ORIENTED_EDGE ( 'NONE', *, *, #110, .F. ) ;
#10 = EDGE_CURVE ( 'NONE', #200, #95, #35, .T. ) ;
#11 = VECTOR ( 'NONE', #140, 1000.000000000000000 ) ;
#12 = PLANE ( 'NONE',  #121 ) ;
#13 = COLOUR_RGB ( '',0.8745098039215686300, 0.9137254901960784000, 1.000000000000000000 ) ;
#14 = DIRECTION ( 'NONE',  ( 0.0000000000000000000, 0.0000000000000000000, -1.000000000000000000 ) ) ;
#15 = EDGE_CURVE ( 'NONE', #173, #200, #195, .T. ) ;
#16 = LINE ( 'NONE', #215, #97 ) ;
#17 = ORIENTED_EDGE ( 'NONE', *, *, #44, .T. ) ;
#18 = CARTESIAN_POINT ( 'NONE',  ( 500.0000000000000000, -250.0000000000000000, 0.0000000000000000000 ) ) ;
#19 = EDGE_CURVE ( 'NONE', #134, #169, #193, .T. ) ;
#20 = COLOUR_RGB ( '',0.0000000000000000000, 0.0000000000000000000, 0.0000000000000000000 ) ;
#21 = ORIENTED_EDGE ( 'NONE', *, *, #15, .T. ) ;
#22 = ADVANCED_FACE ( 'NONE', ( #168 ), #106, .T. ) ;
#23 = SHAPE_DEFINITION_REPRESENTATION ( #197, #133 ) ;
#24 = VECTOR ( 'NONE', #171, 1000.000000000000000 ) ;
#25 = ADVANCED_FACE ( 'NONE', ( #126 ), #91, .F. ) ;
#26 = SURFACE_SIDE_STYLE ('',( #149 ) ) ;
#27 = PRESENTATION_STYLE_ASSIGNMENT (( #37 ) ) ;
#28 =( LENGTH_UNIT ( ) NAMED_UNIT ( * ) SI_UNIT ( .MILLI., .METRE. ) );
#29 = UNCERTAINTY_MEASURE_WITH_UNIT (LENGTH_MEASURE( 1.000000000000000100E-005 ), #191, 'distance_accuracy_value', 'NONE');
#30 = CARTESIAN_POINT ( 'NONE',  ( 0.0000000000000000000, 0.0000000000000000000, 0.0000000000000000000 ) ) ;
#31 = COLOUR_RGB ( '',0.7529411764705882200, 0.7529411764705882200, 0.7529411764705882200 ) ;
#32 = VERTEX_POINT ( 'NONE', #38 ) ;
#33 = EDGE_CURVE ( 'NONE', #32, #134, #175, .T. ) ;
#34 = SURFACE_SIDE_STYLE ('',( #141 ) ) ;
#35 = LINE ( 'NONE', #2, #107 ) ;
#36 = PRODUCT_RELATED_PRODUCT_CATEGORY ( 'part', '', ( #188 ) ) ;
#37 = SURFACE_STYLE_USAGE ( .BOTH. , #108 ) ;
#38 = CARTESIAN_POINT ( 'NONE',  ( -500.0000000000000000, 250.0000000000000000, 5.000000000000000000 ) ) ;
#39 =( GEOMETRIC_REPRESENTATION_CONTEXT ( 3 ) GLOBAL_UNCERTAINTY_ASSIGNED_CONTEXT ( ( #155 ) ) GLOBAL_UNIT_ASSIGNED_CONTEXT ( ( #28, #145, #158 ) ) REPRESENTATION_CONTEXT ( 'NONE', 'WORKASPACE' ) );
#40 = EDGE_LOOP ( 'NONE', ( #123, #4, #100, #165 ) ) ;
#41 = DIRECTION ( 'NONE',  ( 0.0000000000000000000, 1.000000000000000000, -0.0000000000000000000 ) ) ;
#42 = VERTEX_POINT ( 'NONE', #192 ) ;
#43 = PRODUCT_DEFINITION_FORMATION_WITH_SPECIFIED_SOURCE ( 'ANY', '', #188, .NOT_KNOWN. ) ;
#44 = EDGE_CURVE ( 'NONE', #42, #169, #82, .T. ) ;
#45 = LINE ( 'NONE', #209, #8 ) ;
#46 = ORIENTED_EDGE ( 'NONE', *, *, #70, .T. ) ;
#47 = FILL_AREA_STYLE ('',( #98 ) ) ;
#48 = DIRECTION ( 'NONE',  ( 0.0000000000000000000, 0.0000000000000000000, -1.000000000000000000 ) ) ;
#49 = CARTESIAN_POINT ( 'NONE',  ( 500.0000000000000000, 250.0000000000000000, 5.000000000000000000 ) ) ;
#50 = ORIENTED_EDGE ( 'NONE', *, *, #216, .F. ) ;
#51 = PLANE ( 'NONE',  #135 ) ;
#52 = APPLICATION_CONTEXT ( 'automotive_design' ) ;
#53 = FACE_OUTER_BOUND ( 'NONE', #40, .T. ) ;
#54 = FILL_AREA_STYLE_COLOUR ( '', #31 ) ;
#55 =( GEOMETRIC_REPRESENTATION_CONTEXT ( 3 ) GLOBAL_UNCERTAINTY_ASSIGNED_CONTEXT ( ( #29 ) ) GLOBAL_UNIT_ASSIGNED_CONTEXT ( ( #191, #167, #189 ) ) REPRESENTATION_CONTEXT ( 'NONE', 'WORKASPACE' ) );
#56 = DIRECTION ( 'NONE',  ( 1.000000000000000000, 0.0000000000000000000, 0.0000000000000000000 ) ) ;
#57 = EDGE_LOOP ( 'NONE', ( #217, #72, #211, #129 ) ) ;
#58 = EDGE_CURVE ( 'NONE', #42, #173, #184, .T. ) ;
#59 = PRESENTATION_STYLE_ASSIGNMENT (( #162 ) ) ;
#60 = LINE ( 'NONE', #7, #130 ) ;
#61 = UNCERTAINTY_MEASURE_WITH_UNIT (LENGTH_MEASURE( 1.000000000000000100E-005 ), #177, 'distance_accuracy_value', 'NONE');
#62 = CARTESIAN_POINT ( 'NONE',  ( 500.0000000000000000, -250.0000000000000000, 5.000000000000000000 ) ) ;
#63 = FACE_OUTER_BOUND ( 'NONE', #75, .T. ) ;
#64 = EDGE_CURVE ( 'NONE', #176, #32, #45, .T. ) ;
#65 = CARTESIAN_POINT ( 'NONE',  ( -500.0000000000000000, 250.0000000000000000, 0.0000000000000000000 ) ) ;
#66 = CLOSED_SHELL ( 'NONE', ( #25, #174, #113, #96, #196, #22 ) ) ;
#67 = PLANE ( 'NONE',  #85 ) ;
#68 = APPLICATION_PROTOCOL_DEFINITION ( 'draft international standard', 'automotive_design', 1998, #52 ) ;
#69 = VECTOR ( 'NONE', #152, 1000.000000000000000 ) ;
#70 = EDGE_CURVE ( 'NONE', #134, #95, #60, .T. ) ;
#71 = CARTESIAN_POINT ( 'NONE',  ( 500.0000000000000000, -250.0000000000000000, 5.000000000000000000 ) ) ;
#72 = ORIENTED_EDGE ( 'NONE', *, *, #64, .T. ) ;
#73 = STYLED_ITEM ( 'NONE', ( #59 ), #133 ) ;
#74 = CARTESIAN_POINT ( 'NONE',  ( -500.0000000000000000, -250.0000000000000000, 0.0000000000000000000 ) ) ;
#75 = EDGE_LOOP ( 'NONE', ( #194, #138, #1, #127 ) ) ;
#76 = MECHANICAL_DESIGN_GEOMETRIC_PRESENTATION_REPRESENTATION (  '', ( #99 ), #55 ) ;
#77 = VECTOR ( 'NONE', #88, 1000.000000000000000 ) ;
#78 = SURFACE_STYLE_USAGE ( .BOTH. , #26 ) ;
#79 = DIRECTION ( 'NONE',  ( 0.0000000000000000000, 1.000000000000000000, 0.0000000000000000000 ) ) ;
#80 = EDGE_LOOP ( 'NONE', ( #208, #83, #9, #21 ) ) ;
#81 = CARTESIAN_POINT ( 'NONE',  ( -500.0000000000000000, 250.0000000000000000, 5.000000000000000000 ) ) ;
#82 = LINE ( 'NONE', #166, #11 ) ;
#83 = ORIENTED_EDGE ( 'NONE', *, *, #64, .F. ) ;
#84 = EDGE_CURVE ( 'NONE', #169, #176, #199, .T. ) ;
#85 = AXIS2_PLACEMENT_3D ( 'NONE', #81, #136, #14 ) ;
#86 = ORIENTED_EDGE ( 'NONE', *, *, #58, .F. ) ;
#87 = APPLICATION_PROTOCOL_DEFINITION ( 'draft international standard', 'automotive_design', 1998, #182 ) ;
#88 = DIRECTION ( 'NONE',  ( 0.0000000000000000000, -1.000000000000000000, -0.0000000000000000000 ) ) ;
#89 = DIRECTION ( 'NONE',  ( 1.000000000000000000, 0.0000000000000000000, -0.0000000000000000000 ) ) ;
#90 = UNCERTAINTY_MEASURE_WITH_UNIT (LENGTH_MEASURE( 1.000000000000000100E-005 ), #105, 'distance_accuracy_value', 'NONE');
#91 = PLANE ( 'NONE',  #124 ) ;
#92 = ORIENTED_EDGE ( 'NONE', *, *, #10, .F. ) ;
#93 = CARTESIAN_POINT ( 'NONE',  ( -500.0000000000000000, -250.0000000000000000, 0.0000000000000000000 ) ) ;
#94 = CARTESIAN_POINT ( 'NONE',  ( 500.0000000000000000, 250.0000000000000000, 5.000000000000000000 ) ) ;
#95 = VERTEX_POINT ( 'NONE', #93 ) ;
#96 = ADVANCED_FACE ( 'NONE', ( #63 ), #212, .F. ) ;
#97 = VECTOR ( 'NONE', #146, 1000.000000000000000 ) ;
#98 = FILL_AREA_STYLE_COLOUR ( '', #20 ) ;
#99 = STYLED_ITEM ( 'NONE', ( #27 ), #22 ) ;
#100 = ORIENTED_EDGE ( 'NONE', *, *, #137, .F. ) ;
#101 =( NAMED_UNIT ( * ) SI_UNIT ( $, .STERADIAN. ) SOLID_ANGLE_UNIT ( ) );
#102 =( NAMED_UNIT ( * ) PLANE_ANGLE_UNIT ( ) SI_UNIT ( $, .RADIAN. ) );
#103 = FACE_OUTER_BOUND ( 'NONE', #159, .T. ) ;
#104 = AXIS2_PLACEMENT_3D ( 'NONE', #186, #170, #89 ) ;
#105 =( LENGTH_UNIT ( ) NAMED_UNIT ( * ) SI_UNIT ( .MILLI., .METRE. ) );
#106 = PLANE ( 'NONE',  #104 ) ;
#107 = VECTOR ( 'NONE', #210, 1000.000000000000000 ) ;
#108 = SURFACE_SIDE_STYLE ('',( #118 ) ) ;
#109 = DIRECTION ( 'NONE',  ( -1.000000000000000000, -0.0000000000000000000, -0.0000000000000000000 ) ) ;
#110 = EDGE_CURVE ( 'NONE', #173, #176, #190, .T. ) ;
#111 = AXIS2_PLACEMENT_3D ( 'NONE', #131, #201, #115 ) ;
#112 = CARTESIAN_POINT ( 'NONE',  ( 500.0000000000000000, 250.0000000000000000, 0.0000000000000000000 ) ) ;
#113 = ADVANCED_FACE ( 'NONE', ( #205 ), #12, .F. ) ;
#114 = CARTESIAN_POINT ( 'NONE',  ( -500.0000000000000000, -250.0000000000000000, 5.000000000000000000 ) ) ;
#115 = DIRECTION ( 'NONE',  ( 0.0000000000000000000, 0.0000000000000000000, 1.000000000000000000 ) ) ;
#116 = CARTESIAN_POINT ( 'NONE',  ( 500.0000000000000000, 250.0000000000000000, 5.000000000000000000 ) ) ;
#117 = PRODUCT_DEFINITION ( 'UNKNOWN', '', #43, #203 ) ;
#118 = SURFACE_STYLE_FILL_AREA ( #3 ) ;
#119 = MANIFOLD_SOLID_BREP ( 'Importiert1', #66 ) ;
#120 = LINE ( 'NONE', #198, #142 ) ;
#121 = AXIS2_PLACEMENT_3D ( 'NONE', #49, #214, #132 ) ;
#122 = CARTESIAN_POINT ( 'NONE',  ( -500.0000000000000000, -250.0000000000000000, 5.000000000000000000 ) ) ;
#123 = ORIENTED_EDGE ( 'NONE', *, *, #70, .F. ) ;
#124 = AXIS2_PLACEMENT_3D ( 'NONE', #74, #125, #187 ) ;
#125 = DIRECTION ( 'NONE',  ( 0.0000000000000000000, 0.0000000000000000000, 1.000000000000000000 ) ) ;
#126 = FACE_OUTER_BOUND ( 'NONE', #185, .T. ) ;
#127 = ORIENTED_EDGE ( 'NONE', *, *, #58, .T. ) ;
#128 = MECHANICAL_DESIGN_GEOMETRIC_PRESENTATION_REPRESENTATION (  '', ( #73 ), #156 ) ;
#129 = ORIENTED_EDGE ( 'NONE', *, *, #19, .T. ) ;
#130 = VECTOR ( 'NONE', #48, 1000.000000000000000 ) ;
#131 = CARTESIAN_POINT ( 'NONE',  ( 500.0000000000000000, -250.0000000000000000, 5.000000000000000000 ) ) ;
#132 = DIRECTION ( 'NONE',  ( 0.0000000000000000000, -0.0000000000000000000, -1.000000000000000000 ) ) ;
#133 = ADVANCED_BREP_SHAPE_REPRESENTATION ( '6510051_CNAJF00', ( #119, #183 ), #160 ) ;
#134 = VERTEX_POINT ( 'NONE', #114 ) ;
#135 = AXIS2_PLACEMENT_3D ( 'NONE', #148, #79, #181 ) ;
#136 = DIRECTION ( 'NONE',  ( 1.000000000000000000, 0.0000000000000000000, 0.0000000000000000000 ) ) ;
#137 = EDGE_CURVE ( 'NONE', #200, #32, #120, .T. ) ;
#138 = ORIENTED_EDGE ( 'NONE', *, *, #84, .F. ) ;
#139 = PRESENTATION_LAYER_ASSIGNMENT (  '', '', ( #73 ) ) ;
#140 = DIRECTION ( 'NONE',  ( 0.0000000000000000000, 0.0000000000000000000, 1.000000000000000000 ) ) ;
#141 = SURFACE_STYLE_FILL_AREA ( #161 ) ;
#142 = VECTOR ( 'NONE', #172, 1000.000000000000000 ) ;
#143 = STYLED_ITEM ( 'NONE', ( #178 ), #119 ) ;
#144 = VECTOR ( 'NONE', #151, 1000.000000000000000 ) ;
#145 =( NAMED_UNIT ( * ) PLANE_ANGLE_UNIT ( ) SI_UNIT ( $, .RADIAN. ) );
#146 = DIRECTION ( 'NONE',  ( 1.000000000000000000, 0.0000000000000000000, -0.0000000000000000000 ) ) ;
#147 = VECTOR ( 'NONE', #41, 1000.000000000000000 ) ;
#148 = CARTESIAN_POINT ( 'NONE',  ( -500.0000000000000000, -250.0000000000000000, 5.000000000000000000 ) ) ;
#149 = SURFACE_STYLE_FILL_AREA ( #47 ) ;
#150 = ORIENTED_EDGE ( 'NONE', *, *, #15, .F. ) ;
#151 = DIRECTION ( 'NONE',  ( -0.0000000000000000000, 1.000000000000000000, 0.0000000000000000000 ) ) ;
#152 = DIRECTION ( 'NONE',  ( -1.000000000000000000, -0.0000000000000000000, 0.0000000000000000000 ) ) ;
#153 = PRESENTATION_LAYER_ASSIGNMENT (  '', '', ( #143 ) ) ;
#154 = CARTESIAN_POINT ( 'NONE',  ( -500.0000000000000000, 250.0000000000000000, 5.000000000000000000 ) ) ;
#155 = UNCERTAINTY_MEASURE_WITH_UNIT (LENGTH_MEASURE( 1.000000000000000100E-005 ), #28, 'distance_accuracy_value', 'NONE');
#156 =( GEOMETRIC_REPRESENTATION_CONTEXT ( 3 ) GLOBAL_UNCERTAINTY_ASSIGNED_CONTEXT ( ( #61 ) ) GLOBAL_UNIT_ASSIGNED_CONTEXT ( ( #177, #202, #101 ) ) REPRESENTATION_CONTEXT ( 'NONE', 'WORKASPACE' ) );
#157 = DIRECTION ( 'NONE',  ( -0.0000000000000000000, 0.0000000000000000000, 1.000000000000000000 ) ) ;
#158 =( NAMED_UNIT ( * ) SI_UNIT ( $, .STERADIAN. ) SOLID_ANGLE_UNIT ( ) );
#159 = EDGE_LOOP ( 'NONE', ( #17, #213, #46, #163 ) ) ;
#160 =( GEOMETRIC_REPRESENTATION_CONTEXT ( 3 ) GLOBAL_UNCERTAINTY_ASSIGNED_CONTEXT ( ( #90 ) ) GLOBAL_UNIT_ASSIGNED_CONTEXT ( ( #105, #102, #179 ) ) REPRESENTATION_CONTEXT ( 'NONE', 'WORKASPACE' ) );
#161 = FILL_AREA_STYLE ('',( #54 ) ) ;
#162 = SURFACE_STYLE_USAGE ( .BOTH. , #34 ) ;
#163 = ORIENTED_EDGE ( 'NONE', *, *, #216, .T. ) ;
#164 = PRODUCT_CONTEXT ( 'NONE', #52, 'mechanical' ) ;
#165 = ORIENTED_EDGE ( 'NONE', *, *, #10, .T. ) ;
#166 = CARTESIAN_POINT ( 'NONE',  ( 500.0000000000000000, -250.0000000000000000, 5.000000000000000000 ) ) ;
#167 =( NAMED_UNIT ( * ) PLANE_ANGLE_UNIT ( ) SI_UNIT ( $, .RADIAN. ) );
#168 = FACE_OUTER_BOUND ( 'NONE', #57, .T. ) ;
#169 = VERTEX_POINT ( 'NONE', #71 ) ;
#170 = DIRECTION ( 'NONE',  ( 0.0000000000000000000, 0.0000000000000000000, 1.000000000000000000 ) ) ;
#171 = DIRECTION ( 'NONE',  ( 1.000000000000000000, 0.0000000000000000000, -0.0000000000000000000 ) ) ;
#172 = DIRECTION ( 'NONE',  ( -0.0000000000000000000, -0.0000000000000000000, 1.000000000000000000 ) ) ;
#173 = VERTEX_POINT ( 'NONE', #112 ) ;
#174 = ADVANCED_FACE ( 'NONE', ( #53 ), #67, .F. ) ;
#175 = LINE ( 'NONE', #154, #77 ) ;
#176 = VERTEX_POINT ( 'NONE', #94 ) ;
#177 =( LENGTH_UNIT ( ) NAMED_UNIT ( * ) SI_UNIT ( .MILLI., .METRE. ) );
#178 = PRESENTATION_STYLE_ASSIGNMENT (( #78 ) ) ;
#179 =( NAMED_UNIT ( * ) SI_UNIT ( $, .STERADIAN. ) SOLID_ANGLE_UNIT ( ) );
#180 = VECTOR ( 'NONE', #157, 1000.000000000000000 ) ;
#181 = DIRECTION ( 'NONE',  ( 0.0000000000000000000, -0.0000000000000000000, 1.000000000000000000 ) ) ;
#182 = APPLICATION_CONTEXT ( 'automotive_design' ) ;
#183 = AXIS2_PLACEMENT_3D ( 'NONE', #30, #206, #56 ) ;
#184 = LINE ( 'NONE', #18, #144 ) ;
#185 = EDGE_LOOP ( 'NONE', ( #150, #86, #50, #92 ) ) ;
#186 = CARTESIAN_POINT ( 'NONE',  ( -500.0000000000000000, -250.0000000000000000, 5.000000000000000000 ) ) ;
#187 = DIRECTION ( 'NONE',  ( 1.000000000000000000, 0.0000000000000000000, -0.0000000000000000000 ) ) ;
#188 = PRODUCT ( '6510051_CNAJF00', '6510051_CNAJF00', '', ( #164 ) ) ;
#189 =( NAMED_UNIT ( * ) SI_UNIT ( $, .STERADIAN. ) SOLID_ANGLE_UNIT ( ) );
#190 = LINE ( 'NONE', #116, #180 ) ;
#191 =( LENGTH_UNIT ( ) NAMED_UNIT ( * ) SI_UNIT ( .MILLI., .METRE. ) );
#192 = CARTESIAN_POINT ( 'NONE',  ( 500.0000000000000000, -250.0000000000000000, 0.0000000000000000000 ) ) ;
#193 = LINE ( 'NONE', #122, #24 ) ;
#194 = ORIENTED_EDGE ( 'NONE', *, *, #110, .T. ) ;
#195 = LINE ( 'NONE', #207, #69 ) ;
#196 = ADVANCED_FACE ( 'NONE', ( #103 ), #51, .F. ) ;
#197 = PRODUCT_DEFINITION_SHAPE ( 'NONE', 'NONE',  #117 ) ;
#198 = CARTESIAN_POINT ( 'NONE',  ( -500.0000000000000000, 250.0000000000000000, 5.000000000000000000 ) ) ;
#199 = LINE ( 'NONE', #62, #147 ) ;
#200 = VERTEX_POINT ( 'NONE', #65 ) ;
#201 = DIRECTION ( 'NONE',  ( -1.000000000000000000, 0.0000000000000000000, 0.0000000000000000000 ) ) ;
#202 =( NAMED_UNIT ( * ) PLANE_ANGLE_UNIT ( ) SI_UNIT ( $, .RADIAN. ) );
#203 = PRODUCT_DEFINITION_CONTEXT ( 'detailed design', #182, 'design' ) ;
#204 = PRESENTATION_LAYER_ASSIGNMENT (  '', '', ( #99 ) ) ;
#205 = FACE_OUTER_BOUND ( 'NONE', #80, .T. ) ;
#206 = DIRECTION ( 'NONE',  ( 0.0000000000000000000, 0.0000000000000000000, 1.000000000000000000 ) ) ;
#207 = CARTESIAN_POINT ( 'NONE',  ( -500.0000000000000000, 250.0000000000000000, 0.0000000000000000000 ) ) ;
#208 = ORIENTED_EDGE ( 'NONE', *, *, #137, .T. ) ;
#209 = CARTESIAN_POINT ( 'NONE',  ( 500.0000000000000000, 250.0000000000000000, 5.000000000000000000 ) ) ;
#210 = DIRECTION ( 'NONE',  ( 0.0000000000000000000, -1.000000000000000000, -0.0000000000000000000 ) ) ;
#211 = ORIENTED_EDGE ( 'NONE', *, *, #33, .T. ) ;
#212 = PLANE ( 'NONE',  #111 ) ;
#213 = ORIENTED_EDGE ( 'NONE', *, *, #19, .F. ) ;
#214 = DIRECTION ( 'NONE',  ( 0.0000000000000000000, -1.000000000000000000, 0.0000000000000000000 ) ) ;
#215 = CARTESIAN_POINT ( 'NONE',  ( -500.0000000000000000, -250.0000000000000000, 0.0000000000000000000 ) ) ;
#216 = EDGE_CURVE ( 'NONE', #95, #42, #16, .T. ) ;
#217 = ORIENTED_EDGE ( 'NONE', *, *, #84, .T. ) ;
ENDSEC;
END-ISO-10303-21;
