ISO-10303-21;
HEADER;
FILE_DESCRIPTION (( 'STEP AP214' ),
    '1' );
FILE_NAME ('6510010',
    '2019-02-01T12:50:08',
    ( '' ),
    ('JUGARD+KÜNSTNER GmbH'),
    'SwSTEP 2.0',
    'SolidWorks 2017',
    '' );
FILE_SCHEMA (( 'AUTOMOTIVE_DESIGN' ));
ENDSEC;

DATA;
#1 = ORIENTED_EDGE ( 'NONE', *, *, #166, .F. ) ;
#2 = ORIENTED_EDGE ( 'NONE', *, *, #155, .T. ) ;
#3 = PLANE ( 'NONE',  #30 ) ;
#4 = CARTESIAN_POINT ( 'NONE',  ( -500.0000000000000000, 250.0000000000000000, 30.00000000000000000 ) ) ;
#5 = SHAPE_DEFINITION_REPRESENTATION ( #133, #158 ) ;
#6 = APPLICATION_PROTOCOL_DEFINITION ( 'draft international standard', 'automotive_design', 1998, #29 ) ;
#7 = SURFACE_SIDE_STYLE ('',( #68 ) ) ;
#8 = DIRECTION ( 'NONE',  ( 1.000000000000000000, 0.0000000000000000000, 0.0000000000000000000 ) ) ;
#9 = VERTEX_POINT ( 'NONE', #93 ) ;
#10 = ORIENTED_EDGE ( 'NONE', *, *, #102, .T. ) ;
#11 =( GEOMETRIC_REPRESENTATION_CONTEXT ( 3 ) GLOBAL_UNCERTAINTY_ASSIGNED_CONTEXT ( ( #169 ) ) GLOBAL_UNIT_ASSIGNED_CONTEXT ( ( #183, #143, #118 ) ) REPRESENTATION_CONTEXT ( 'NONE', 'WORKASPACE' ) );
#12 = AXIS2_PLACEMENT_3D ( 'NONE', #191, #216, #67 ) ;
#13 = LINE ( 'NONE', #103, #205 ) ;
#14 = PRODUCT_DEFINITION ( 'UNKNOWN', '', #181, #162 ) ;
#15 = SURFACE_STYLE_FILL_AREA ( #16 ) ;
#16 = FILL_AREA_STYLE ('',( #76 ) ) ;
#17 = VECTOR ( 'NONE', #24, 1000.000000000000000 ) ;
#18 =( NAMED_UNIT ( * ) SI_UNIT ( $, .STERADIAN. ) SOLID_ANGLE_UNIT ( ) );
#19 = MECHANICAL_DESIGN_GEOMETRIC_PRESENTATION_REPRESENTATION (  '', ( #130 ), #211 ) ;
#20 = ORIENTED_EDGE ( 'NONE', *, *, #111, .F. ) ;
#21 = CARTESIAN_POINT ( 'NONE',  ( 500.0000000000000000, 250.0000000000000000, 30.00000000000000000 ) ) ;
#22 = CARTESIAN_POINT ( 'NONE',  ( 500.0000000000000000, -250.0000000000000000, 30.00000000000000000 ) ) ;
#23 = DIRECTION ( 'NONE',  ( 0.0000000000000000000, 0.0000000000000000000, 1.000000000000000000 ) ) ;
#24 = DIRECTION ( 'NONE',  ( 1.000000000000000000, 0.0000000000000000000, -0.0000000000000000000 ) ) ;
#25 = EDGE_CURVE ( 'NONE', #51, #44, #189, .T. ) ;
#26 = ADVANCED_FACE ( 'NONE', ( #171 ), #151, .F. ) ;
#27 = CARTESIAN_POINT ( 'NONE',  ( 0.0000000000000000000, 0.0000000000000000000, 0.0000000000000000000 ) ) ;
#28 = VECTOR ( 'NONE', #142, 1000.000000000000000 ) ;
#29 = APPLICATION_CONTEXT ( 'automotive_design' ) ;
#30 = AXIS2_PLACEMENT_3D ( 'NONE', #115, #99, #23 ) ;
#31 = ORIENTED_EDGE ( 'NONE', *, *, #25, .F. ) ;
#32 = LINE ( 'NONE', #22, #94 ) ;
#33 = VECTOR ( 'NONE', #41, 1000.000000000000000 ) ;
#34 = FACE_OUTER_BOUND ( 'NONE', #167, .T. ) ;
#35 = DIRECTION ( 'NONE',  ( 1.000000000000000000, 0.0000000000000000000, -0.0000000000000000000 ) ) ;
#36 = PRESENTATION_LAYER_ASSIGNMENT (  '', '', ( #209 ) ) ;
#37 = ORIENTED_EDGE ( 'NONE', *, *, #217, .T. ) ;
#38 = STYLED_ITEM ( 'NONE', ( #152 ), #158 ) ;
#39 = CARTESIAN_POINT ( 'NONE',  ( -500.0000000000000000, -250.0000000000000000, 30.00000000000000000 ) ) ;
#40 = DIRECTION ( 'NONE',  ( 0.0000000000000000000, 1.000000000000000000, -0.0000000000000000000 ) ) ;
#41 = DIRECTION ( 'NONE',  ( 0.0000000000000000000, 0.0000000000000000000, 1.000000000000000000 ) ) ;
#42 = FILL_AREA_STYLE_COLOUR ( '', #207 ) ;
#43 = FACE_OUTER_BOUND ( 'NONE', #136, .T. ) ;
#44 = VERTEX_POINT ( 'NONE', #4 ) ;
#45 = ORIENTED_EDGE ( 'NONE', *, *, #120, .T. ) ;
#46 = ORIENTED_EDGE ( 'NONE', *, *, #184, .T. ) ;
#47 = VERTEX_POINT ( 'NONE', #194 ) ;
#48 = DIRECTION ( 'NONE',  ( 1.000000000000000000, 0.0000000000000000000, -0.0000000000000000000 ) ) ;
#49 = AXIS2_PLACEMENT_3D ( 'NONE', #101, #157, #215 ) ;
#50 = EDGE_LOOP ( 'NONE', ( #214, #53, #109, #77 ) ) ;
#51 = VERTEX_POINT ( 'NONE', #21 ) ;
#52 = APPLICATION_CONTEXT ( 'automotive_design' ) ;
#53 = ORIENTED_EDGE ( 'NONE', *, *, #155, .F. ) ;
#54 = CARTESIAN_POINT ( 'NONE',  ( -500.0000000000000000, -250.0000000000000000, 30.00000000000000000 ) ) ;
#55 = EDGE_LOOP ( 'NONE', ( #69, #31, #79, #37 ) ) ;
#56 = MECHANICAL_DESIGN_GEOMETRIC_PRESENTATION_REPRESENTATION (  '', ( #209 ), #190 ) ;
#57 = COLOUR_RGB ( '',0.8745098039215686300, 0.9137254901960784000, 1.000000000000000000 ) ;
#58 = CARTESIAN_POINT ( 'NONE',  ( -500.0000000000000000, -250.0000000000000000, 0.0000000000000000000 ) ) ;
#59 = LINE ( 'NONE', #81, #28 ) ;
#60 = CARTESIAN_POINT ( 'NONE',  ( -500.0000000000000000, 250.0000000000000000, 30.00000000000000000 ) ) ;
#61 = DIRECTION ( 'NONE',  ( 1.000000000000000000, 0.0000000000000000000, 0.0000000000000000000 ) ) ;
#62 = UNCERTAINTY_MEASURE_WITH_UNIT (LENGTH_MEASURE( 1.000000000000000100E-005 ), #116, 'distance_accuracy_value', 'NONE');
#63 = SURFACE_STYLE_USAGE ( .BOTH. , #83 ) ;
#64 = UNCERTAINTY_MEASURE_WITH_UNIT (LENGTH_MEASURE( 1.000000000000000100E-005 ), #174, 'distance_accuracy_value', 'NONE');
#65 = CARTESIAN_POINT ( 'NONE',  ( 500.0000000000000000, -250.0000000000000000, 30.00000000000000000 ) ) ;
#66 = AXIS2_PLACEMENT_3D ( 'NONE', #58, #172, #35 ) ;
#67 = DIRECTION ( 'NONE',  ( 0.0000000000000000000, -0.0000000000000000000, -1.000000000000000000 ) ) ;
#68 = SURFACE_STYLE_FILL_AREA ( #199 ) ;
#69 = ORIENTED_EDGE ( 'NONE', *, *, #166, .T. ) ;
#70 =( NAMED_UNIT ( * ) PLANE_ANGLE_UNIT ( ) SI_UNIT ( $, .RADIAN. ) );
#71 = AXIS2_PLACEMENT_3D ( 'NONE', #54, #104, #164 ) ;
#72 = SURFACE_STYLE_USAGE ( .BOTH. , #7 ) ;
#73 = MECHANICAL_DESIGN_GEOMETRIC_PRESENTATION_REPRESENTATION (  '', ( #38 ), #11 ) ;
#74 = PRODUCT ( '6510010_CNAJF00', '6510010_CNAJF00', '', ( #86 ) ) ;
#75 = VERTEX_POINT ( 'NONE', #160 ) ;
#76 = FILL_AREA_STYLE_COLOUR ( '', #57 ) ;
#77 = ORIENTED_EDGE ( 'NONE', *, *, #178, .F. ) ;
#78 = LINE ( 'NONE', #156, #147 ) ;
#79 = ORIENTED_EDGE ( 'NONE', *, *, #161, .F. ) ;
#80 = ORIENTED_EDGE ( 'NONE', *, *, #102, .F. ) ;
#81 = CARTESIAN_POINT ( 'NONE',  ( 500.0000000000000000, -250.0000000000000000, 0.0000000000000000000 ) ) ;
#82 = ORIENTED_EDGE ( 'NONE', *, *, #184, .F. ) ;
#83 = SURFACE_SIDE_STYLE ('',( #153 ) ) ;
#84 = FILL_AREA_STYLE ('',( #180 ) ) ;
#85 =( NAMED_UNIT ( * ) SI_UNIT ( $, .STERADIAN. ) SOLID_ANGLE_UNIT ( ) );
#86 = PRODUCT_CONTEXT ( 'NONE', #29, 'mechanical' ) ;
#87 = ORIENTED_EDGE ( 'NONE', *, *, #144, .T. ) ;
#88 = CARTESIAN_POINT ( 'NONE',  ( -500.0000000000000000, 250.0000000000000000, 0.0000000000000000000 ) ) ;
#89 = ADVANCED_FACE ( 'NONE', ( #34 ), #210, .T. ) ;
#90 = FACE_OUTER_BOUND ( 'NONE', #137, .T. ) ;
#91 = ADVANCED_FACE ( 'NONE', ( #165 ), #127, .F. ) ;
#92 = ORIENTED_EDGE ( 'NONE', *, *, #126, .F. ) ;
#93 = CARTESIAN_POINT ( 'NONE',  ( 500.0000000000000000, 250.0000000000000000, 0.0000000000000000000 ) ) ;
#94 = VECTOR ( 'NONE', #40, 1000.000000000000000 ) ;
#95 = COLOUR_RGB ( '',0.0000000000000000000, 0.0000000000000000000, 0.0000000000000000000 ) ;
#96 = DIRECTION ( 'NONE',  ( -1.000000000000000000, -0.0000000000000000000, -0.0000000000000000000 ) ) ;
#97 =( NAMED_UNIT ( * ) PLANE_ANGLE_UNIT ( ) SI_UNIT ( $, .RADIAN. ) );
#98 = CARTESIAN_POINT ( 'NONE',  ( -500.0000000000000000, 250.0000000000000000, 30.00000000000000000 ) ) ;
#99 = DIRECTION ( 'NONE',  ( -1.000000000000000000, 0.0000000000000000000, 0.0000000000000000000 ) ) ;
#100 = ORIENTED_EDGE ( 'NONE', *, *, #111, .T. ) ;
#101 = CARTESIAN_POINT ( 'NONE',  ( -500.0000000000000000, -250.0000000000000000, 30.00000000000000000 ) ) ;
#102 = EDGE_CURVE ( 'NONE', #44, #117, #182, .T. ) ;
#103 = CARTESIAN_POINT ( 'NONE',  ( -500.0000000000000000, -250.0000000000000000, 0.0000000000000000000 ) ) ;
#104 = DIRECTION ( 'NONE',  ( 0.0000000000000000000, 1.000000000000000000, 0.0000000000000000000 ) ) ;
#105 = PRESENTATION_STYLE_ASSIGNMENT (( #212 ) ) ;
#106 = VECTOR ( 'NONE', #132, 1000.000000000000000 ) ;
#107 = ORIENTED_EDGE ( 'NONE', *, *, #126, .T. ) ;
#108 = MANIFOLD_SOLID_BREP ( 'Importiert1', #121 ) ;
#109 = ORIENTED_EDGE ( 'NONE', *, *, #120, .F. ) ;
#110 = VECTOR ( 'NONE', #113, 1000.000000000000000 ) ;
#111 = EDGE_CURVE ( 'NONE', #75, #47, #163, .T. ) ;
#112 = AXIS2_PLACEMENT_3D ( 'NONE', #27, #200, #8 ) ;
#113 = DIRECTION ( 'NONE',  ( 0.0000000000000000000, -1.000000000000000000, -0.0000000000000000000 ) ) ;
#114 = DIRECTION ( 'NONE',  ( 0.0000000000000000000, 0.0000000000000000000, -1.000000000000000000 ) ) ;
#115 = CARTESIAN_POINT ( 'NONE',  ( 500.0000000000000000, -250.0000000000000000, 30.00000000000000000 ) ) ;
#116 =( LENGTH_UNIT ( ) NAMED_UNIT ( * ) SI_UNIT ( .MILLI., .METRE. ) );
#117 = VERTEX_POINT ( 'NONE', #39 ) ;
#118 =( NAMED_UNIT ( * ) SI_UNIT ( $, .STERADIAN. ) SOLID_ANGLE_UNIT ( ) );
#119 = LINE ( 'NONE', #88, #106 ) ;
#120 = EDGE_CURVE ( 'NONE', #187, #75, #185, .T. ) ;
#121 = CLOSED_SHELL ( 'NONE', ( #26, #148, #91, #170, #206, #89 ) ) ;
#122 = ORIENTED_EDGE ( 'NONE', *, *, #161, .T. ) ;
#123 = AXIS2_PLACEMENT_3D ( 'NONE', #60, #61, #175 ) ;
#124 = LINE ( 'NONE', #159, #145 ) ;
#125 = VERTEX_POINT ( 'NONE', #129 ) ;
#126 = EDGE_CURVE ( 'NONE', #117, #187, #78, .T. ) ;
#127 = PLANE ( 'NONE',  #12 ) ;
#128 =( NAMED_UNIT ( * ) SI_UNIT ( $, .STERADIAN. ) SOLID_ANGLE_UNIT ( ) );
#129 = CARTESIAN_POINT ( 'NONE',  ( -500.0000000000000000, 250.0000000000000000, 0.0000000000000000000 ) ) ;
#130 = STYLED_ITEM ( 'NONE', ( #105 ), #26 ) ;
#131 =( LENGTH_UNIT ( ) NAMED_UNIT ( * ) SI_UNIT ( .MILLI., .METRE. ) );
#132 = DIRECTION ( 'NONE',  ( -1.000000000000000000, -0.0000000000000000000, 0.0000000000000000000 ) ) ;
#133 = PRODUCT_DEFINITION_SHAPE ( 'NONE', 'NONE',  #14 ) ;
#134 = APPLICATION_PROTOCOL_DEFINITION ( 'draft international standard', 'automotive_design', 1998, #52 ) ;
#135 =( GEOMETRIC_REPRESENTATION_CONTEXT ( 3 ) GLOBAL_UNCERTAINTY_ASSIGNED_CONTEXT ( ( #62 ) ) GLOBAL_UNIT_ASSIGNED_CONTEXT ( ( #116, #70, #85 ) ) REPRESENTATION_CONTEXT ( 'NONE', 'WORKASPACE' ) );
#136 = EDGE_LOOP ( 'NONE', ( #100, #203, #107, #45 ) ) ;
#137 = EDGE_LOOP ( 'NONE', ( #92, #80, #1, #146 ) ) ;
#138 = LINE ( 'NONE', #179, #188 ) ;
#139 = SURFACE_SIDE_STYLE ('',( #15 ) ) ;
#140 =( NAMED_UNIT ( * ) PLANE_ANGLE_UNIT ( ) SI_UNIT ( $, .RADIAN. ) );
#141 = DIRECTION ( 'NONE',  ( -0.0000000000000000000, 0.0000000000000000000, 1.000000000000000000 ) ) ;
#142 = DIRECTION ( 'NONE',  ( -0.0000000000000000000, 1.000000000000000000, 0.0000000000000000000 ) ) ;
#143 =( NAMED_UNIT ( * ) PLANE_ANGLE_UNIT ( ) SI_UNIT ( $, .RADIAN. ) );
#144 = EDGE_CURVE ( 'NONE', #117, #47, #149, .T. ) ;
#145 = VECTOR ( 'NONE', #141, 1000.000000000000000 ) ;
#146 = ORIENTED_EDGE ( 'NONE', *, *, #178, .T. ) ;
#147 = VECTOR ( 'NONE', #114, 1000.000000000000000 ) ;
#148 = ADVANCED_FACE ( 'NONE', ( #90 ), #195, .F. ) ;
#149 = LINE ( 'NONE', #154, #17 ) ;
#150 = ORIENTED_EDGE ( 'NONE', *, *, #25, .T. ) ;
#151 = PLANE ( 'NONE',  #66 ) ;
#152 = PRESENTATION_STYLE_ASSIGNMENT (( #72 ) ) ;
#153 = SURFACE_STYLE_FILL_AREA ( #84 ) ;
#154 = CARTESIAN_POINT ( 'NONE',  ( -500.0000000000000000, -250.0000000000000000, 30.00000000000000000 ) ) ;
#155 = EDGE_CURVE ( 'NONE', #75, #9, #59, .T. ) ;
#156 = CARTESIAN_POINT ( 'NONE',  ( -500.0000000000000000, -250.0000000000000000, 30.00000000000000000 ) ) ;
#157 = DIRECTION ( 'NONE',  ( 0.0000000000000000000, 0.0000000000000000000, 1.000000000000000000 ) ) ;
#158 = ADVANCED_BREP_SHAPE_REPRESENTATION ( '6510010_CNAJF00', ( #108, #112 ), #135 ) ;
#159 = CARTESIAN_POINT ( 'NONE',  ( 500.0000000000000000, 250.0000000000000000, 30.00000000000000000 ) ) ;
#160 = CARTESIAN_POINT ( 'NONE',  ( 500.0000000000000000, -250.0000000000000000, 0.0000000000000000000 ) ) ;
#161 = EDGE_CURVE ( 'NONE', #9, #51, #124, .T. ) ;
#162 = PRODUCT_DEFINITION_CONTEXT ( 'detailed design', #52, 'design' ) ;
#163 = LINE ( 'NONE', #65, #33 ) ;
#164 = DIRECTION ( 'NONE',  ( 0.0000000000000000000, -0.0000000000000000000, 1.000000000000000000 ) ) ;
#165 = FACE_OUTER_BOUND ( 'NONE', #55, .T. ) ;
#166 = EDGE_CURVE ( 'NONE', #125, #44, #138, .T. ) ;
#167 = EDGE_LOOP ( 'NONE', ( #46, #150, #10, #87 ) ) ;
#168 = EDGE_LOOP ( 'NONE', ( #122, #82, #20, #2 ) ) ;
#169 = UNCERTAINTY_MEASURE_WITH_UNIT (LENGTH_MEASURE( 1.000000000000000100E-005 ), #183, 'distance_accuracy_value', 'NONE');
#170 = ADVANCED_FACE ( 'NONE', ( #213 ), #3, .F. ) ;
#171 = FACE_OUTER_BOUND ( 'NONE', #50, .T. ) ;
#172 = DIRECTION ( 'NONE',  ( 0.0000000000000000000, 0.0000000000000000000, 1.000000000000000000 ) ) ;
#173 = CARTESIAN_POINT ( 'NONE',  ( 500.0000000000000000, 250.0000000000000000, 30.00000000000000000 ) ) ;
#174 =( LENGTH_UNIT ( ) NAMED_UNIT ( * ) SI_UNIT ( .MILLI., .METRE. ) );
#175 = DIRECTION ( 'NONE',  ( 0.0000000000000000000, 0.0000000000000000000, -1.000000000000000000 ) ) ;
#176 = UNCERTAINTY_MEASURE_WITH_UNIT (LENGTH_MEASURE( 1.000000000000000100E-005 ), #131, 'distance_accuracy_value', 'NONE');
#177 = CARTESIAN_POINT ( 'NONE',  ( -500.0000000000000000, -250.0000000000000000, 0.0000000000000000000 ) ) ;
#178 = EDGE_CURVE ( 'NONE', #125, #187, #13, .T. ) ;
#179 = CARTESIAN_POINT ( 'NONE',  ( -500.0000000000000000, 250.0000000000000000, 30.00000000000000000 ) ) ;
#180 = FILL_AREA_STYLE_COLOUR ( '', #95 ) ;
#181 = PRODUCT_DEFINITION_FORMATION_WITH_SPECIFIED_SOURCE ( 'ANY', '', #74, .NOT_KNOWN. ) ;
#182 = LINE ( 'NONE', #98, #110 ) ;
#183 =( LENGTH_UNIT ( ) NAMED_UNIT ( * ) SI_UNIT ( .MILLI., .METRE. ) );
#184 = EDGE_CURVE ( 'NONE', #47, #51, #32, .T. ) ;
#185 = LINE ( 'NONE', #177, #202 ) ;
#186 = PRODUCT_RELATED_PRODUCT_CATEGORY ( 'part', '', ( #74 ) ) ;
#187 = VERTEX_POINT ( 'NONE', #198 ) ;
#188 = VECTOR ( 'NONE', #197, 1000.000000000000000 ) ;
#189 = LINE ( 'NONE', #173, #208 ) ;
#190 =( GEOMETRIC_REPRESENTATION_CONTEXT ( 3 ) GLOBAL_UNCERTAINTY_ASSIGNED_CONTEXT ( ( #176 ) ) GLOBAL_UNIT_ASSIGNED_CONTEXT ( ( #131, #140, #128 ) ) REPRESENTATION_CONTEXT ( 'NONE', 'WORKASPACE' ) );
#191 = CARTESIAN_POINT ( 'NONE',  ( 500.0000000000000000, 250.0000000000000000, 30.00000000000000000 ) ) ;
#192 = PRESENTATION_LAYER_ASSIGNMENT (  '', '', ( #130 ) ) ;
#193 = PRESENTATION_STYLE_ASSIGNMENT (( #63 ) ) ;
#194 = CARTESIAN_POINT ( 'NONE',  ( 500.0000000000000000, -250.0000000000000000, 30.00000000000000000 ) ) ;
#195 = PLANE ( 'NONE',  #123 ) ;
#196 = PRESENTATION_LAYER_ASSIGNMENT (  '', '', ( #38 ) ) ;
#197 = DIRECTION ( 'NONE',  ( -0.0000000000000000000, -0.0000000000000000000, 1.000000000000000000 ) ) ;
#198 = CARTESIAN_POINT ( 'NONE',  ( -500.0000000000000000, -250.0000000000000000, 0.0000000000000000000 ) ) ;
#199 = FILL_AREA_STYLE ('',( #42 ) ) ;
#200 = DIRECTION ( 'NONE',  ( 0.0000000000000000000, 0.0000000000000000000, 1.000000000000000000 ) ) ;
#201 = PLANE ( 'NONE',  #71 ) ;
#202 = VECTOR ( 'NONE', #48, 1000.000000000000000 ) ;
#203 = ORIENTED_EDGE ( 'NONE', *, *, #144, .F. ) ;
#204 = DIRECTION ( 'NONE',  ( 0.0000000000000000000, -1.000000000000000000, -0.0000000000000000000 ) ) ;
#205 = VECTOR ( 'NONE', #204, 1000.000000000000000 ) ;
#206 = ADVANCED_FACE ( 'NONE', ( #43 ), #201, .F. ) ;
#207 = COLOUR_RGB ( '',0.7529411764705882200, 0.7529411764705882200, 0.7529411764705882200 ) ;
#208 = VECTOR ( 'NONE', #96, 1000.000000000000000 ) ;
#209 = STYLED_ITEM ( 'NONE', ( #193 ), #108 ) ;
#210 = PLANE ( 'NONE',  #49 ) ;
#211 =( GEOMETRIC_REPRESENTATION_CONTEXT ( 3 ) GLOBAL_UNCERTAINTY_ASSIGNED_CONTEXT ( ( #64 ) ) GLOBAL_UNIT_ASSIGNED_CONTEXT ( ( #174, #97, #18 ) ) REPRESENTATION_CONTEXT ( 'NONE', 'WORKASPACE' ) );
#212 = SURFACE_STYLE_USAGE ( .BOTH. , #139 ) ;
#213 = FACE_OUTER_BOUND ( 'NONE', #168, .T. ) ;
#214 = ORIENTED_EDGE ( 'NONE', *, *, #217, .F. ) ;
#215 = DIRECTION ( 'NONE',  ( 1.000000000000000000, 0.0000000000000000000, -0.0000000000000000000 ) ) ;
#216 = DIRECTION ( 'NONE',  ( 0.0000000000000000000, -1.000000000000000000, 0.0000000000000000000 ) ) ;
#217 = EDGE_CURVE ( 'NONE', #9, #125, #119, .T. ) ;
ENDSEC;
END-ISO-10303-21;
