ISO-10303-21;
HEADER;
FILE_DESCRIPTION (( 'STEP AP214' ),
    '1' );
FILE_NAME ('6221607',
    '2019-02-04T09:02:57',
    ( '' ),
    ('JUGARD+KÜNSTNER GmbH'),
    'SwSTEP 2.0',
    'SolidWorks 2017',
    '' );
FILE_SCHEMA (( 'AUTOMOTIVE_DESIGN' ));
ENDSEC;

DATA;
#1 = ORIENTED_EDGE ( 'NONE', *, *, #96, .T. ) ;
#2 = DIRECTION ( 'NONE',  ( 1.437245674880597000E-008, 0.9999999999999980000, 6.110697751849676800E-008 ) ) ;
#3 = AXIS2_PLACEMENT_3D ( 'NONE', #52, #190, #215 ) ;
#4 = DIRECTION ( 'NONE',  ( 0.0000000000000000000, 0.0000000000000000000, -1.000000000000000000 ) ) ;
#5 = SURFACE_STYLE_FILL_AREA ( #222 ) ;
#6 = DIRECTION ( 'NONE',  ( 0.0000000000000000000, -1.000000000000000000, 0.0000000000000000000 ) ) ;
#7 = VERTEX_POINT ( 'NONE', #44 ) ;
#8 = DIRECTION ( 'NONE',  ( -1.437245674880594500E-008, -0.9999999999999998900, 0.0000000000000000000 ) ) ;
#9 = CARTESIAN_POINT ( 'NONE',  ( 2.785858115795480000, 5.822221313860260300, 4.720406453216408100 ) ) ;
#10 = EDGE_CURVE ( 'NONE', #138, #193, #58, .T. ) ;
#11 = CARTESIAN_POINT ( 'NONE',  ( -2.500000000000000000, 5.000000000000000000, 0.0000000000000000000 ) ) ;
#12 = CARTESIAN_POINT ( 'NONE',  ( -4.859018218082920400, 5.810902985427084400, 2.929756562638401900 ) ) ;
#13 = CARTESIAN_POINT ( 'NONE',  ( 0.0000000000000000000, -5.551115123125779700E-016, 0.0000000000000000000 ) ) ;
#14 = EDGE_LOOP ( 'NONE', ( #246, #265, #41 ) ) ;
#15 = CARTESIAN_POINT ( 'NONE',  ( -2.856099860961052600, 5.689309394770183400, 5.054731530702279800 ) ) ;
#16 = CARTESIAN_POINT ( 'NONE',  ( 0.08897316621212679500, 5.822221312868991000, 4.719567882393752400 ) ) ;
#17 = CARTESIAN_POINT ( 'NONE',  ( -4.971967076669375100, 5.522916157427689900, 2.997859344894843400 ) ) ;
#18 = PRESENTATION_LAYER_ASSIGNMENT (  '', '', ( #24 ) ) ;
#19 = DIRECTION ( 'NONE',  ( 0.0000000000000000000, 0.0000000000000000000, -1.000000000000000000 ) ) ;
#20 = CARTESIAN_POINT ( 'NONE',  ( 5.027588787986832000, 5.522916157427689900, 2.903612528785119100 ) ) ;
#21 = COLOUR_RGB ( '',0.8745098039215686300, 0.9137254901960784000, 1.000000000000000000 ) ;
#22 = SURFACE_SIDE_STYLE ('',( #5 ) ) ;
#23 = PRODUCT_RELATED_PRODUCT_CATEGORY ( 'part', '', ( #42 ) ) ;
#24 = STYLED_ITEM ( 'NONE', ( #144 ), #170 ) ;
#25 = UNCERTAINTY_MEASURE_WITH_UNIT (LENGTH_MEASURE( 1.000000000000000100E-005 ), #72, 'distance_accuracy_value', 'NONE');
#26 = AXIS2_PLACEMENT_3D ( 'NONE', #104, #255, #132 ) ;
#27 = EDGE_LOOP ( 'NONE', ( #36, #171 ) ) ;
#28 = CARTESIAN_POINT ( 'NONE',  ( 6.123233995736766300E-016, 5.522916157427689900, 5.000000000000000000 ) ) ;
#29 = MECHANICAL_DESIGN_GEOMETRIC_PRESENTATION_REPRESENTATION (  '', ( #24 ), #57 ) ;
#30 = CARTESIAN_POINT ( 'NONE',  ( -0.08897229646567336700, 5.822221313860262100, -4.719567884248379900 ) ) ;
#31 = PRODUCT_DEFINITION_SHAPE ( 'NONE', 'NONE',  #191 ) ;
#32 = CARTESIAN_POINT ( 'NONE',  ( 8.597882247886009800E-007, 5.822025829654948300, 4.723095458785724800 ) ) ;
#33 = CARTESIAN_POINT ( 'NONE',  ( -4.720196820821753300, 5.822221312868991000, 0.04448812799695787300 ) ) ;
#34 = CARTESIAN_POINT ( 'NONE',  ( 0.09424311954901576400, 5.689309394770183400, 4.999111744541992600 ) ) ;
#35 = AXIS2_PLACEMENT_3D ( 'NONE', #93, #174, #19 ) ;
#36 = ORIENTED_EDGE ( 'NONE', *, *, #260, .F. ) ;
#37 = CARTESIAN_POINT ( 'NONE',  ( 4.971967083102666300, 5.689309401338023000, -2.997858913116560100 ) ) ;
#38 = ORIENTED_EDGE ( 'NONE', *, *, #240, .T. ) ;
#39 =( BOUNDED_SURFACE ( )  B_SPLINE_SURFACE ( 3, 3, ( 
 ( #182, #9, #63, #145, #212, #209, #30 ),
 ( #165, #150, #86, #232, #101, #148, #186 ),
 ( #64, #88, #139, #109, #37, #221, #196 ),
 ( #90, #159, #20, #219, #115, #74, #157 ) ),
 .UNSPECIFIED., .F., .F., .T. ) 
 B_SPLINE_SURFACE_WITH_KNOTS ( ( 4, 4 ),
 ( 4, 3, 4 ),
 ( 0.0000000000000000000, 1.000000000000000000 ),
 ( 0.0000000000000000000, 0.5000000000000000000, 1.000000000000000000 ),
 .UNSPECIFIED. ) 
 GEOMETRIC_REPRESENTATION_ITEM ( )  RATIONAL_B_SPLINE_SURFACE ( (
 ( 1.000000000000000000, 0.8025111867385937800, 0.8025111867385937800, 1.000000000000000000, 0.8025111867385937800, 0.8025111867385937800, 1.000000000000000000),
 ( 0.8205069302098835200, 0.6584659902899742100, 0.6584659902899742100, 0.8205069302098835200, 0.6584659902899742100, 0.6584659902899742100, 0.8205069302098835200),
 ( 0.8205069302098835200, 0.6584659902899742100, 0.6584659902899742100, 0.8205069302098835200, 0.6584659902899742100, 0.6584659902899742100, 0.8205069302098835200),
 ( 1.000000000000000000, 0.8025111867385937800, 0.8025111867385937800, 1.000000000000000000, 0.8025111867385937800, 0.8025111867385937800, 1.000000000000000000) ) ) 
 REPRESENTATION_ITEM ( '' )  SURFACE ( )  );
#40 = CIRCLE ( 'NONE', #47, 5.000000000000000000 ) ;
#41 = ORIENTED_EDGE ( 'NONE', *, *, #10, .F. ) ;
#42 = PRODUCT ( '6221607_CNAJF00', '6221607_CNAJF00', '', ( #112 ) ) ;
#43 = ORIENTED_EDGE ( 'NONE', *, *, #183, .T. ) ;
#44 = CARTESIAN_POINT ( 'NONE',  ( 0.0000000000000000000, 5.522916157427689900, -5.000000000000000000 ) ) ;
#45 = DIRECTION ( 'NONE',  ( -0.0000000000000000000, 1.000000000000000000, 0.0000000000000000000 ) ) ;
#46 = ORIENTED_EDGE ( 'NONE', *, *, #158, .T. ) ;
#47 = AXIS2_PLACEMENT_3D ( 'NONE', #55, #173, #188 ) ;
#48 = PLANE ( 'NONE',  #216 ) ;
#49 = CARTESIAN_POINT ( 'NONE',  ( -4.971967076669376000, 5.689309394770183400, 2.997859344894843800 ) ) ;
#50 = ADVANCED_FACE ( 'NONE', ( #234 ), #243, .T. ) ;
#51 = APPLICATION_PROTOCOL_DEFINITION ( 'draft international standard', 'automotive_design', 1998, #264 ) ;
#52 = CARTESIAN_POINT ( 'NONE',  ( 5.755839955992559700E-016, 5.522916157427689900, -4.700000000000000200 ) ) ;
#53 = CARTESIAN_POINT ( 'NONE',  ( -2.696390451247257000, 5.822221312868991000, 4.772077482058994000 ) ) ;
#54 = EDGE_CURVE ( 'NONE', #138, #87, #201, .T. ) ;
#55 = CARTESIAN_POINT ( 'NONE',  ( 0.0000000000000000000, 5.522916157427689900, 0.0000000000000000000 ) ) ;
#56 =( NAMED_UNIT ( * ) PLANE_ANGLE_UNIT ( ) SI_UNIT ( $, .RADIAN. ) );
#57 =( GEOMETRIC_REPRESENTATION_CONTEXT ( 3 ) GLOBAL_UNCERTAINTY_ASSIGNED_CONTEXT ( ( #124 ) ) GLOBAL_UNIT_ASSIGNED_CONTEXT ( ( #108, #69, #195 ) ) REPRESENTATION_CONTEXT ( 'NONE', 'WORKASPACE' ) );
#58 = CIRCLE ( 'NONE', #154, 60.00000000241837500 ) ;
#59 = PRODUCT_DEFINITION_CONTEXT ( 'detailed design', #264, 'design' ) ;
#60 = ORIENTED_EDGE ( 'NONE', *, *, #96, .F. ) ;
#61 = CARTESIAN_POINT ( 'NONE',  ( -2.785857666203141600, 5.822221312868991000, -4.720406976523219300 ) ) ;
#62 = CARTESIAN_POINT ( 'NONE',  ( 6.123233995736766300E-016, 5.000000000000000000, 5.000000000000000000 ) ) ;
#63 = CARTESIAN_POINT ( 'NONE',  ( 4.746452511786301000, 5.822221313860260300, 2.741246263703457100 ) ) ;
#64 = CARTESIAN_POINT ( 'NONE',  ( 0.0000000000000000000, 5.689309401338023000, 5.000000000000000900 ) ) ;
#65 = ADVANCED_FACE ( 'NONE', ( #77 ), #211, .T. ) ;
#66 = CARTESIAN_POINT ( 'NONE',  ( -5.027588794344631600, 5.522916157427689900, -2.903612952553738900 ) ) ;
#67 = SURFACE_STYLE_USAGE ( .BOTH. , #22 ) ;
#68 = CARTESIAN_POINT ( 'NONE',  ( -2.950866292164617400, 5.689309394770183400, -5.000000538902390300 ) ) ;
#69 =( NAMED_UNIT ( * ) PLANE_ANGLE_UNIT ( ) SI_UNIT ( $, .RADIAN. ) );
#70 = AXIS2_PLACEMENT_3D ( 'NONE', #166, #143, #4 ) ;
#71 = ORIENTED_EDGE ( 'NONE', *, *, #81, .T. ) ;
#72 =( LENGTH_UNIT ( ) NAMED_UNIT ( * ) SI_UNIT ( .MILLI., .METRE. ) );
#73 = ORIENTED_EDGE ( 'NONE', *, *, #54, .T. ) ;
#74 = CARTESIAN_POINT ( 'NONE',  ( 2.856100364440920600, 5.522916157427689900, -5.054730996467492700 ) ) ;
#75 = ORIENTED_EDGE ( 'NONE', *, *, #240, .F. ) ;
#76 = AXIS2_PLACEMENT_3D ( 'NONE', #169, #122, #82 ) ;
#77 = FACE_OUTER_BOUND ( 'NONE', #250, .T. ) ;
#78 = SURFACE_STYLE_USAGE ( .BOTH. , #203 ) ;
#79 =( NAMED_UNIT ( * ) SI_UNIT ( $, .STERADIAN. ) SOLID_ANGLE_UNIT ( ) );
#80 = DIRECTION ( 'NONE',  ( -5.797930924882035800E-025, -6.110697751849678100E-008, 0.9999999999999981100 ) ) ;
#81 = EDGE_CURVE ( 'NONE', #226, #138, #175, .T. ) ;
#82 = DIRECTION ( 'NONE',  ( -5.797930924882035800E-025, -6.110697751849678100E-008, 0.9999999999999981100 ) ) ;
#83 = DIRECTION ( 'NONE',  ( 1.000000000000000000, -1.437245674880595400E-008, -7.557927115201187000E-016 ) ) ;
#84 = CARTESIAN_POINT ( 'NONE',  ( 3.729055305472933300E-014, -53.99990985595981400, -0.1040036053055645200 ) ) ;
#85 = COLOUR_RGB ( '',0.7529411764705882200, 0.7529411764705882200, 0.7529411764705882200 ) ;
#86 = CARTESIAN_POINT ( 'NONE',  ( 4.913376355871392300, 5.810902994035654200, 2.837650760068906900 ) ) ;
#87 = VERTEX_POINT ( 'NONE', #28 ) ;
#88 = CARTESIAN_POINT ( 'NONE',  ( 2.950866777475531100, 5.689309401338023000, 5.000000000000000900 ) ) ;
#89 = CARTESIAN_POINT ( 'NONE',  ( -2.856099860961053100, 5.522916157427689900, 5.054731530702279800 ) ) ;
#90 = CARTESIAN_POINT ( 'NONE',  ( 0.0000000000000000000, 5.522916157427689900, 5.000000000000000000 ) ) ;
#91 = CARTESIAN_POINT ( 'NONE',  ( 9.131255935285490600E-007, 5.689309394770183400, -4.999999999999917400 ) ) ;
#92 = LINE ( 'NONE', #245, #208 ) ;
#93 = CARTESIAN_POINT ( 'NONE',  ( 0.0000000000000000000, 5.000000000000000000, 0.0000000000000000000 ) ) ;
#94 = CARTESIAN_POINT ( 'NONE',  ( 8.597882253670128800E-007, 5.822026406882679700, -4.723088152552414000 ) ) ;
#95 = APPLICATION_CONTEXT ( 'automotive_design' ) ;
#96 = EDGE_CURVE ( 'NONE', #226, #7, #119, .T. ) ;
#97 = CIRCLE ( 'NONE', #231, 5.000000000000000000 ) ;
#98 = DIRECTION ( 'NONE',  ( 0.0000000000000000000, 0.0000000000000000000, -1.000000000000000000 ) ) ;
#99 = MANIFOLD_SOLID_BREP ( 'Importiert1', #105 ) ;
#100 = EDGE_LOOP ( 'NONE', ( #113, #38, #252, #181 ) ) ;
#101 = CARTESIAN_POINT ( 'NONE',  ( 4.859018216975043100, 5.810902994035654200, -2.929756136210039100 ) ) ;
#102 = CARTESIAN_POINT ( 'NONE',  ( -4.913376369562511700, 5.810902985427084400, -2.837651178529384300 ) ) ;
#103 = DIRECTION ( 'NONE',  ( 0.0000000000000000000, -1.000000000000000000, 0.0000000000000000000 ) ) ;
#104 = CARTESIAN_POINT ( 'NONE',  ( 8.597882247886008700E-007, 5.822026118268819800, 3.653116655927745200E-006 ) ) ;
#105 = CLOSED_SHELL ( 'NONE', ( #65, #130, #106, #152, #153, #214, #50 ) ) ;
#106 = ADVANCED_FACE ( 'NONE', ( #210 ), #141, .T. ) ;
#107 = CARTESIAN_POINT ( 'NONE',  ( 0.0000000000000000000, 5.522916157427689900, 4.700000000000000200 ) ) ;
#108 =( LENGTH_UNIT ( ) NAMED_UNIT ( * ) SI_UNIT ( .MILLI., .METRE. ) );
#109 = CARTESIAN_POINT ( 'NONE',  ( 4.999777935544750000, 5.689309401338023000, -0.04712319216572013300 ) ) ;
#110 = DIRECTION ( 'NONE',  ( 0.0000000000000000000, 0.0000000000000000000, 1.000000000000000000 ) ) ;
#111 = MECHANICAL_DESIGN_GEOMETRIC_PRESENTATION_REPRESENTATION (  '', ( #224 ), #200 ) ;
#112 = PRODUCT_CONTEXT ( 'NONE', #95, 'mechanical' ) ;
#113 = ORIENTED_EDGE ( 'NONE', *, *, #118, .F. ) ;
#114 = ORIENTED_EDGE ( 'NONE', *, *, #206, .F. ) ;
#115 = CARTESIAN_POINT ( 'NONE',  ( 4.971967083102665400, 5.522916157427689900, -2.997858913116559200 ) ) ;
#116 = AXIS2_PLACEMENT_3D ( 'NONE', #84, #83, #229 ) ;
#117 = FACE_OUTER_BOUND ( 'NONE', #128, .T. ) ;
#118 = EDGE_CURVE ( 'NONE', #87, #120, #92, .T. ) ;
#119 = CIRCLE ( 'NONE', #3, 0.2999999999999999300 ) ;
#120 = VERTEX_POINT ( 'NONE', #62 ) ;
#121 = CARTESIAN_POINT ( 'NONE',  ( 3.727781628679210100E-014, -53.99990986231516400, -2.421041150760597200E-009 ) ) ;
#122 = DIRECTION ( 'NONE',  ( 1.437245674880597000E-008, 0.9999999999999980000, 6.110697751849676800E-008 ) ) ;
#123 = DIRECTION ( 'NONE',  ( 0.0000000000000000000, -6.110697747434762400E-008, 0.9999999999999981100 ) ) ;
#124 = UNCERTAINTY_MEASURE_WITH_UNIT (LENGTH_MEASURE( 1.000000000000000100E-005 ), #108, 'distance_accuracy_value', 'NONE');
#125 = DIRECTION ( 'NONE',  ( -1.000000000000000000, 1.437245674880594500E-008, 8.782573914348537500E-016 ) ) ;
#126 = DIRECTION ( 'NONE',  ( -1.437245674880597000E-008, -0.9999999999999980000, -6.110697751849676800E-008 ) ) ;
#127 = CARTESIAN_POINT ( 'NONE',  ( -2.791217448360568700, 5.810902985427084400, 4.939902500652418200 ) ) ;
#128 = EDGE_LOOP ( 'NONE', ( #60, #71, #73, #136 ) ) ;
#129 = CARTESIAN_POINT ( 'NONE',  ( 0.0000000000000000000, 5.522916157427689900, 0.0000000000000000000 ) ) ;
#130 = ADVANCED_FACE ( 'NONE', ( #258 ), #155, .T. ) ;
#131 = CARTESIAN_POINT ( 'NONE',  ( -5.027588794344632500, 5.689309394770183400, -2.903612952553738900 ) ) ;
#132 = DIRECTION ( 'NONE',  ( 0.0000000000000000000, -6.110697747434762400E-008, 0.9999999999999981100 ) ) ;
#133 = CARTESIAN_POINT ( 'NONE',  ( -4.746452532407949400, 5.822221312868991000, -2.741246672218693400 ) ) ;
#134 = CIRCLE ( 'NONE', #262, 5.000000000000000000 ) ;
#135 = CARTESIAN_POINT ( 'NONE',  ( 9.131255935285491700E-007, 5.522916157427689900, -4.999999999999916500 ) ) ;
#136 = ORIENTED_EDGE ( 'NONE', *, *, #158, .F. ) ;
#137 = PRESENTATION_LAYER_ASSIGNMENT (  '', '', ( #224 ) ) ;
#138 = VERTEX_POINT ( 'NONE', #32 ) ;
#139 = CARTESIAN_POINT ( 'NONE',  ( 5.027588787986832800, 5.689309401338023000, 2.903612528785119600 ) ) ;
#140 =( GEOMETRIC_REPRESENTATION_CONTEXT ( 3 ) GLOBAL_UNCERTAINTY_ASSIGNED_CONTEXT ( ( #25 ) ) GLOBAL_UNIT_ASSIGNED_CONTEXT ( ( #72, #56, #261 ) ) REPRESENTATION_CONTEXT ( 'NONE', 'WORKASPACE' ) );
#141 = TOROIDAL_SURFACE ( 'NONE', #76, 0.1040036028845235500, 60.00000000241837500 ) ;
#142 = CARTESIAN_POINT ( 'NONE',  ( 8.623461467127669900E-007, 6.000000000456950900, 3.663992101943239800E-006 ) ) ;
#143 = DIRECTION ( 'NONE',  ( 0.0000000000000000000, -1.000000000000000000, 0.0000000000000000000 ) ) ;
#144 = PRESENTATION_STYLE_ASSIGNMENT (( #67 ) ) ;
#145 = CARTESIAN_POINT ( 'NONE',  ( 4.720196806318888600, 5.822221313860262100, -0.04448812407904442800 ) ) ;
#146 = PRESENTATION_STYLE_ASSIGNMENT (( #78 ) ) ;
#147 = CARTESIAN_POINT ( 'NONE',  ( 8.620647915130583800E-007, 5.822221312868991000, -4.720406467755474900 ) ) ;
#148 = CARTESIAN_POINT ( 'NONE',  ( 2.791217936154814600, 5.810902994035654200, -4.939901971035796500 ) ) ;
#149 = CARTESIAN_POINT ( 'NONE',  ( -4.999777935507004200, 5.689309394770183400, 0.04712319617055241200 ) ) ;
#150 = CARTESIAN_POINT ( 'NONE',  ( 2.883831527434907600, 5.810902994035654200, 4.886414306209425200 ) ) ;
#151 = CARTESIAN_POINT ( 'NONE',  ( -2.883831057537820100, 5.810902985427084400, -4.886414840306212400 ) ) ;
#152 = ADVANCED_FACE ( 'NONE', ( #241 ), #48, .F. ) ;
#153 = ADVANCED_FACE ( 'NONE', ( #225 ), #179, .T. ) ;
#154 = AXIS2_PLACEMENT_3D ( 'NONE', #249, #125, #8 ) ;
#155 = CYLINDRICAL_SURFACE ( 'NONE', #197, 5.000000000000000000 ) ;
#156 = SURFACE_STYLE_FILL_AREA ( #204 ) ;
#157 = CARTESIAN_POINT ( 'NONE',  ( -0.09424219857704106700, 5.522916157427689900, -4.999111761904044800 ) ) ;
#158 = EDGE_CURVE ( 'NONE', #7, #87, #97, .T. ) ;
#159 = CARTESIAN_POINT ( 'NONE',  ( 2.950866777475531100, 5.522916157427689900, 5.000000000000000000 ) ) ;
#160 = ORIENTED_EDGE ( 'NONE', *, *, #10, .T. ) ;
#161 = EDGE_LOOP ( 'NONE', ( #114, #168, #160 ) ) ;
#162 = EDGE_CURVE ( 'NONE', #7, #177, #199, .T. ) ;
#163 = AXIS2_PLACEMENT_3D ( 'NONE', #107, #259, #213 ) ;
#164 = CARTESIAN_POINT ( 'NONE',  ( 8.597882247886008700E-007, 5.822026118268819800, 3.653116655927745200E-006 ) ) ;
#165 = CARTESIAN_POINT ( 'NONE',  ( 0.0000000000000000000, 5.810902994035653400, 4.886414306209425200 ) ) ;
#166 = CARTESIAN_POINT ( 'NONE',  ( 0.0000000000000000000, -5.551115123125779700E-016, 0.0000000000000000000 ) ) ;
#167 = CARTESIAN_POINT ( 'NONE',  ( 0.09424311954901577700, 5.522916157427689900, 4.999111744541991700 ) ) ;
#168 = ORIENTED_EDGE ( 'NONE', *, *, #178, .F. ) ;
#169 = CARTESIAN_POINT ( 'NONE',  ( 3.727781628679210100E-014, -53.99990986231516400, -2.421041150760597200E-009 ) ) ;
#170 = ADVANCED_BREP_SHAPE_REPRESENTATION ( '6221607_CNAJF00', ( #99, #266 ), #140 ) ;
#171 = ORIENTED_EDGE ( 'NONE', *, *, #183, .F. ) ;
#172 = AXIS2_PLACEMENT_3D ( 'NONE', #121, #2, #80 ) ;
#173 = DIRECTION ( 'NONE',  ( 0.0000000000000000000, -1.000000000000000000, 0.0000000000000000000 ) ) ;
#174 = DIRECTION ( 'NONE',  ( -0.0000000000000000000, 1.000000000000000000, -0.0000000000000000000 ) ) ;
#175 = CIRCLE ( 'NONE', #26, 4.723091805668992100 ) ;
#176 = CIRCLE ( 'NONE', #35, 5.000000000000000000 ) ;
#177 = VERTEX_POINT ( 'NONE', #254 ) ;
#178 = EDGE_CURVE ( 'NONE', #138, #226, #237, .T. ) ;
#179 = CYLINDRICAL_SURFACE ( 'NONE', #70, 5.000000000000000000 ) ;
#180 = CARTESIAN_POINT ( 'NONE',  ( 0.0000000000000000000, 5.000000000000000000, 0.0000000000000000000 ) ) ;
#181 = ORIENTED_EDGE ( 'NONE', *, *, #260, .T. ) ;
#182 = CARTESIAN_POINT ( 'NONE',  ( 0.0000000000000000000, 5.822221313860262100, 4.720406453216408100 ) ) ;
#183 = EDGE_CURVE ( 'NONE', #120, #177, #134, .T. ) ;
#184 = DIRECTION ( 'NONE',  ( 0.0000000000000000000, -1.000000000000000000, 0.0000000000000000000 ) ) ;
#185 = EDGE_LOOP ( 'NONE', ( #46, #202, #43, #228 ) ) ;
#186 = CARTESIAN_POINT ( 'NONE',  ( -0.09210128547509659200, 5.810902994035653400, -4.885546246341546900 ) ) ;
#187 = CARTESIAN_POINT ( 'NONE',  ( -2.950866292164616900, 5.522916157427689900, -5.000000538902391200 ) ) ;
#188 = DIRECTION ( 'NONE',  ( 0.0000000000000000000, 0.0000000000000000000, -1.000000000000000000 ) ) ;
#189 = FILL_AREA_STYLE_COLOUR ( '', #21 ) ;
#190 = DIRECTION ( 'NONE',  ( -1.000000000000000000, 0.0000000000000000000, -1.224646799147353200E-016 ) ) ;
#191 = PRODUCT_DEFINITION ( 'UNKNOWN', '', #251, #59 ) ;
#192 = CARTESIAN_POINT ( 'NONE',  ( 0.09210218566539504800, 5.810902985427085300, 4.885546236809305200 ) ) ;
#193 = VERTEX_POINT ( 'NONE', #142 ) ;
#194 = CARTESIAN_POINT ( 'NONE',  ( 8.923819940749062300E-007, 5.810902985427085300, -4.886414313646060500 ) ) ;
#195 =( NAMED_UNIT ( * ) SI_UNIT ( $, .STERADIAN. ) SOLID_ANGLE_UNIT ( ) );
#196 = CARTESIAN_POINT ( 'NONE',  ( -0.09424219857704109500, 5.689309401338023000, -4.999111761904044800 ) ) ;
#197 = AXIS2_PLACEMENT_3D ( 'NONE', #13, #6, #247 ) ;
#198 = CIRCLE ( 'NONE', #116, 60.00000000241838200 ) ;
#199 = LINE ( 'NONE', #248, #257 ) ;
#200 =( GEOMETRIC_REPRESENTATION_CONTEXT ( 3 ) GLOBAL_UNCERTAINTY_ASSIGNED_CONTEXT ( ( #223 ) ) GLOBAL_UNIT_ASSIGNED_CONTEXT ( ( #244, #227, #79 ) ) REPRESENTATION_CONTEXT ( 'NONE', 'WORKASPACE' ) );
#201 = CIRCLE ( 'NONE', #163, 0.2999999999999999300 ) ;
#202 = ORIENTED_EDGE ( 'NONE', *, *, #118, .T. ) ;
#203 = SURFACE_SIDE_STYLE ('',( #156 ) ) ;
#204 = FILL_AREA_STYLE ('',( #189 ) ) ;
#205 = DIRECTION ( 'NONE',  ( -0.0000000000000000000, 1.000000000000000000, -0.0000000000000000000 ) ) ;
#206 = EDGE_CURVE ( 'NONE', #226, #193, #198, .T. ) ;
#207 = DIRECTION ( 'NONE',  ( 0.0000000000000000000, 0.0000000000000000000, -1.000000000000000000 ) ) ;
#208 = VECTOR ( 'NONE', #230, 1000.000000000000000 ) ;
#209 = CARTESIAN_POINT ( 'NONE',  ( 2.696390918268132700, 5.822221313860260300, -4.772076962999632200 ) ) ;
#210 = FACE_OUTER_BOUND ( 'NONE', #14, .T. ) ;
#211 =( BOUNDED_SURFACE ( )  B_SPLINE_SURFACE ( 3, 3, ( 
 ( #147, #61, #133, #33, #217, #53, #16 ),
 ( #194, #151, #102, #253, #12, #127, #192 ),
 ( #91, #68, #131, #149, #49, #15, #34 ),
 ( #135, #187, #66, #236, #17, #89, #167 ) ),
 .UNSPECIFIED., .F., .F., .F. ) 
 B_SPLINE_SURFACE_WITH_KNOTS ( ( 4, 4 ),
 ( 4, 3, 4 ),
 ( 0.0000000000000000000, 1.000000000000000000 ),
 ( 0.0000000000000000000, 0.5000000000000000000, 1.000000000000000000 ),
 .UNSPECIFIED. ) 
 GEOMETRIC_REPRESENTATION_ITEM ( )  RATIONAL_B_SPLINE_SURFACE ( (
 ( 1.000000000000000000, 0.8025111433013861800, 0.8025111433013861800, 1.000000000000000000, 0.8025111433013861800, 0.8025111433013861800, 1.000000000000000000),
 ( 0.8205069412631683700, 0.6584659635198285600, 0.6584659635198285600, 0.8205069412631683700, 0.6584659635198285600, 0.6584659635198285600, 0.8205069412631683700),
 ( 0.8205069412631683700, 0.6584659635198285600, 0.6584659635198285600, 0.8205069412631683700, 0.6584659635198285600, 0.6584659635198285600, 0.8205069412631683700),
 ( 1.000000000000000000, 0.8025111433013861800, 0.8025111433013861800, 1.000000000000000000, 0.8025111433013861800, 0.8025111433013861800, 1.000000000000000000) ) ) 
 REPRESENTATION_ITEM ( '' )  SURFACE ( )  );
#212 = CARTESIAN_POINT ( 'NONE',  ( 4.693941100851476200, 5.822221313860260300, -2.830222511861546100 ) ) ;
#213 = DIRECTION ( 'NONE',  ( 0.0000000000000000000, 0.0000000000000000000, 1.000000000000000000 ) ) ;
#214 = ADVANCED_FACE ( 'NONE', ( #117 ), #39, .T. ) ;
#215 = DIRECTION ( 'NONE',  ( 1.224646799147353200E-016, 0.0000000000000000000, -1.000000000000000000 ) ) ;
#216 = AXIS2_PLACEMENT_3D ( 'NONE', #11, #45, #233 ) ;
#217 = CARTESIAN_POINT ( 'NONE',  ( -4.693941109235558100, 5.822221312868991000, 2.830222928212608600 ) ) ;
#218 = ORIENTED_EDGE ( 'NONE', *, *, #54, .F. ) ;
#219 = CARTESIAN_POINT ( 'NONE',  ( 4.999777935544749100, 5.522916157427689900, -0.04712319216572012600 ) ) ;
#220 = CARTESIAN_POINT ( 'NONE',  ( 0.0000000000000000000, 0.0000000000000000000, 0.0000000000000000000 ) ) ;
#221 = CARTESIAN_POINT ( 'NONE',  ( 2.856100364440921500, 5.689309401338023000, -5.054730996467494500 ) ) ;
#222 = FILL_AREA_STYLE ('',( #239 ) ) ;
#223 = UNCERTAINTY_MEASURE_WITH_UNIT (LENGTH_MEASURE( 1.000000000000000100E-005 ), #244, 'distance_accuracy_value', 'NONE');
#224 = STYLED_ITEM ( 'NONE', ( #146 ), #99 ) ;
#225 = FACE_OUTER_BOUND ( 'NONE', #100, .T. ) ;
#226 = VERTEX_POINT ( 'NONE', #94 ) ;
#227 =( NAMED_UNIT ( * ) PLANE_ANGLE_UNIT ( ) SI_UNIT ( $, .RADIAN. ) );
#228 = ORIENTED_EDGE ( 'NONE', *, *, #162, .F. ) ;
#229 = DIRECTION ( 'NONE',  ( 1.437245674880595200E-008, 0.9999999999999998900, 0.0000000000000000000 ) ) ;
#230 = DIRECTION ( 'NONE',  ( 0.0000000000000000000, -1.000000000000000000, 0.0000000000000000000 ) ) ;
#231 = AXIS2_PLACEMENT_3D ( 'NONE', #129, #184, #207 ) ;
#232 = CARTESIAN_POINT ( 'NONE',  ( 4.886197286423218600, 5.810902994035653400, -0.04605268807056615100 ) ) ;
#233 = DIRECTION ( 'NONE',  ( 0.0000000000000000000, -0.0000000000000000000, 1.000000000000000000 ) ) ;
#234 = FACE_OUTER_BOUND ( 'NONE', #161, .T. ) ;
#235 = ORIENTED_EDGE ( 'NONE', *, *, #178, .T. ) ;
#236 = CARTESIAN_POINT ( 'NONE',  ( -4.999777935507004200, 5.522916157427689900, 0.04712319617055241200 ) ) ;
#237 = CIRCLE ( 'NONE', #242, 4.723091805668992100 ) ;
#238 = APPLICATION_PROTOCOL_DEFINITION ( 'draft international standard', 'automotive_design', 1998, #95 ) ;
#239 = FILL_AREA_STYLE_COLOUR ( '', #85 ) ;
#240 = EDGE_CURVE ( 'NONE', #87, #7, #40, .T. ) ;
#241 = FACE_OUTER_BOUND ( 'NONE', #27, .T. ) ;
#242 = AXIS2_PLACEMENT_3D ( 'NONE', #164, #126, #123 ) ;
#243 = TOROIDAL_SURFACE ( 'NONE', #172, 0.1040036028845235500, 60.00000000241837500 ) ;
#244 =( LENGTH_UNIT ( ) NAMED_UNIT ( * ) SI_UNIT ( .MILLI., .METRE. ) );
#245 = CARTESIAN_POINT ( 'NONE',  ( 6.123233995736766300E-016, -5.551115123125779700E-016, 5.000000000000000000 ) ) ;
#246 = ORIENTED_EDGE ( 'NONE', *, *, #81, .F. ) ;
#247 = DIRECTION ( 'NONE',  ( 0.0000000000000000000, 0.0000000000000000000, -1.000000000000000000 ) ) ;
#248 = CARTESIAN_POINT ( 'NONE',  ( 0.0000000000000000000, -5.551115123125779700E-016, -5.000000000000000000 ) ) ;
#249 = CARTESIAN_POINT ( 'NONE',  ( 3.727781628679210100E-014, -53.99990986867050700, 0.1040036004634822100 ) ) ;
#250 = EDGE_LOOP ( 'NONE', ( #235, #1, #75, #218 ) ) ;
#251 = PRODUCT_DEFINITION_FORMATION_WITH_SPECIFIED_SOURCE ( 'ANY', '', #42, .NOT_KNOWN. ) ;
#252 = ORIENTED_EDGE ( 'NONE', *, *, #162, .T. ) ;
#253 = CARTESIAN_POINT ( 'NONE',  ( -4.886197293822715600, 5.810902985427085300, 0.04605269205450847300 ) ) ;
#254 = CARTESIAN_POINT ( 'NONE',  ( 0.0000000000000000000, 5.000000000000000000, -5.000000000000000000 ) ) ;
#255 = DIRECTION ( 'NONE',  ( -1.437245674880597000E-008, -0.9999999999999980000, -6.110697751849676800E-008 ) ) ;
#256 = SHAPE_DEFINITION_REPRESENTATION ( #31, #170 ) ;
#257 = VECTOR ( 'NONE', #103, 1000.000000000000000 ) ;
#258 = FACE_OUTER_BOUND ( 'NONE', #185, .T. ) ;
#259 = DIRECTION ( 'NONE',  ( 1.000000000000000000, 0.0000000000000000000, 0.0000000000000000000 ) ) ;
#260 = EDGE_CURVE ( 'NONE', #177, #120, #176, .T. ) ;
#261 =( NAMED_UNIT ( * ) SI_UNIT ( $, .STERADIAN. ) SOLID_ANGLE_UNIT ( ) );
#262 = AXIS2_PLACEMENT_3D ( 'NONE', #180, #205, #98 ) ;
#263 = DIRECTION ( 'NONE',  ( 1.000000000000000000, 0.0000000000000000000, 0.0000000000000000000 ) ) ;
#264 = APPLICATION_CONTEXT ( 'automotive_design' ) ;
#265 = ORIENTED_EDGE ( 'NONE', *, *, #206, .T. ) ;
#266 = AXIS2_PLACEMENT_3D ( 'NONE', #220, #110, #263 ) ;
ENDSEC;
END-ISO-10303-21;
