ISO-10303-21;
HEADER;
FILE_DESCRIPTION (( 'STEP AP214' ),
    '1' );
FILE_NAME ('6130005',
    '2019-02-04T08:08:06',
    ( '' ),
    ('JUGARD+KÜNSTNER GmbH'),
    'SwSTEP 2.0',
    'SolidWorks 2017',
    '' );
FILE_SCHEMA (( 'AUTOMOTIVE_DESIGN' ));
ENDSEC;

DATA;
#1 = VERTEX_POINT ( 'NONE', #145 ) ;
#2 = ADVANCED_FACE ( 'NONE', ( #43 ), #28, .T. ) ;
#3 = SURFACE_STYLE_USAGE ( .BOTH. , #100 ) ;
#4 = CARTESIAN_POINT ( 'NONE',  ( 14.00000000000000000, 0.0000000000000000000, 0.0000000000000000000 ) ) ;
#5 = ORIENTED_EDGE ( 'NONE', *, *, #201, .F. ) ;
#6 = CARTESIAN_POINT ( 'NONE',  ( 13.99999999999999600, -3.429011037612588500E-015, 2.757359312880715200 ) ) ;
#7 = APPLICATION_CONTEXT ( 'automotive_design' ) ;
#8 = CARTESIAN_POINT ( 'NONE',  ( -12.75735931288070700, 25.51471862576142500, 4.000000000000000000 ) ) ;
#9 = CARTESIAN_POINT ( 'NONE',  ( -10.99999999999999500, 22.00000000000000000, 4.000000000000000000 ) ) ;
#10 = CARTESIAN_POINT ( 'NONE',  ( 0.0000000000000000000, 0.0000000000000000000, 0.0000000000000000000 ) ) ;
#11 = DIRECTION ( 'NONE',  ( 0.0000000000000000000, 0.0000000000000000000, 1.000000000000000000 ) ) ;
#12 = CARTESIAN_POINT ( 'NONE',  ( 11.00000000000000000, -6.735557395310442000E-016, 4.000000000000000000 ) ) ;
#13 = MECHANICAL_DESIGN_GEOMETRIC_PRESENTATION_REPRESENTATION (  '', ( #110 ), #178 ) ;
#14 = CIRCLE ( 'NONE', #30, 2.999999999999999100 ) ;
#15 = ADVANCED_FACE ( 'NONE', ( #142 ), #92, .T. ) ;
#16 = CIRCLE ( 'NONE', #207, 2.999999999999999100 ) ;
#17 = UNCERTAINTY_MEASURE_WITH_UNIT (LENGTH_MEASURE( 1.000000000000000100E-005 ), #132, 'distance_accuracy_value', 'NONE');
#18 =( NAMED_UNIT ( * ) SI_UNIT ( $, .STERADIAN. ) SOLID_ANGLE_UNIT ( ) );
#19 = EDGE_LOOP ( 'NONE', ( #40, #165 ) ) ;
#20 =( GEOMETRIC_REPRESENTATION_CONTEXT ( 3 ) GLOBAL_UNCERTAINTY_ASSIGNED_CONTEXT ( ( #17 ) ) GLOBAL_UNIT_ASSIGNED_CONTEXT ( ( #132, #153, #131 ) ) REPRESENTATION_CONTEXT ( 'NONE', 'WORKASPACE' ) );
#21 = DIRECTION ( 'NONE',  ( 0.0000000000000000000, -1.000000000000000000, 0.0000000000000000000 ) ) ;
#22 = DIRECTION ( 'NONE',  ( 0.0000000000000000000, 0.0000000000000000000, 1.000000000000000000 ) ) ;
#23 = UNCERTAINTY_MEASURE_WITH_UNIT (LENGTH_MEASURE( 1.000000000000000100E-005 ), #84, 'distance_accuracy_value', 'NONE');
#24 = DIRECTION ( 'NONE',  ( -0.0000000000000000000, -0.0000000000000000000, -1.000000000000000000 ) ) ;
#25 = AXIS2_PLACEMENT_3D ( 'NONE', #38, #42, #157 ) ;
#26 = AXIS2_PLACEMENT_3D ( 'NONE', #87, #103, #213 ) ;
#27 = VERTEX_POINT ( 'NONE', #81 ) ;
#28 = CYLINDRICAL_SURFACE ( 'NONE', #174, 14.00000000000000000 ) ;
#29 = ORIENTED_EDGE ( 'NONE', *, *, #121, .F. ) ;
#30 = AXIS2_PLACEMENT_3D ( 'NONE', #134, #21, #68 ) ;
#31 = EDGE_LOOP ( 'NONE', ( #5, #172, #215, #128 ) ) ;
#32 = DIRECTION ( 'NONE',  ( 1.000000000000000000, 0.0000000000000000000, 0.0000000000000000000 ) ) ;
#33 = ADVANCED_FACE ( 'NONE', ( #158 ), #135, .F. ) ;
#34 = CARTESIAN_POINT ( 'NONE',  ( 13.99999999999998800, -27.99999999999998600, 2.757359312880715200 ) ) ;
#35 = ORIENTED_EDGE ( 'NONE', *, *, #190, .F. ) ;
#36 = DIRECTION ( 'NONE',  ( 0.0000000000000000000, 0.0000000000000000000, 1.000000000000000000 ) ) ;
#37 = CARTESIAN_POINT ( 'NONE',  ( -11.00000000000000000, 2.694222958124176800E-015, 4.000000000000000000 ) ) ;
#38 = CARTESIAN_POINT ( 'NONE',  ( 0.0000000000000000000, 0.0000000000000000000, 0.0000000000000000000 ) ) ;
#39 = PRODUCT_RELATED_PRODUCT_CATEGORY ( 'part', '', ( #45 ) ) ;
#40 = ORIENTED_EDGE ( 'NONE', *, *, #180, .F. ) ;
#41 = CARTESIAN_POINT ( 'NONE',  ( 11.00000000000000400, 21.99999999999999600, 4.000000000000000000 ) ) ;
#42 = DIRECTION ( 'NONE',  ( 0.0000000000000000000, 0.0000000000000000000, 1.000000000000000000 ) ) ;
#43 = FACE_OUTER_BOUND ( 'NONE', #93, .T. ) ;
#44 = CARTESIAN_POINT ( 'NONE',  ( 0.0000000000000000000, 0.0000000000000000000, 1.000000000000000000 ) ) ;
#45 = PRODUCT ( '6130005_CNAJF00', '6130005_CNAJF00', '', ( #82 ) ) ;
#46 = SURFACE_STYLE_FILL_AREA ( #150 ) ;
#47 = CARTESIAN_POINT ( 'NONE',  ( -13.99999999999999600, 1.714505518806294400E-015, 2.757359312880715200 ) ) ;
#48 = PRODUCT_DEFINITION_SHAPE ( 'NONE', 'NONE',  #203 ) ;
#49 = APPLICATION_CONTEXT ( 'automotive_design' ) ;
#50 = CARTESIAN_POINT ( 'NONE',  ( 11.00000000000000400, 21.99999999999999600, 4.000000000000000000 ) ) ;
#51 = DIRECTION ( 'NONE',  ( 1.000000000000000000, 0.0000000000000000000, 0.0000000000000000000 ) ) ;
#52 = CARTESIAN_POINT ( 'NONE',  ( 12.75735931288071300, -1.562325924809204200E-015, 4.000000000000000000 ) ) ;
#53 = ADVANCED_BREP_SHAPE_REPRESENTATION ( '6130005_CNAJF00', ( #208, #139 ), #20 ) ;
#54 = CARTESIAN_POINT ( 'NONE',  ( -13.99999999999999100, 27.99999999999999300, 1.000000000000000000 ) ) ;
#55 = VECTOR ( 'NONE', #22, 1000.000000000000000 ) ;
#56 = CARTESIAN_POINT ( 'NONE',  ( -11.00000000000000000, -2.020667218593131100E-015, 4.000000000000000000 ) ) ;
#57 = SURFACE_SIDE_STYLE ('',( #101 ) ) ;
#58 = CIRCLE ( 'NONE', #120, 14.00000000000000000 ) ;
#59 = VECTOR ( 'NONE', #71, 1000.000000000000000 ) ;
#60 = ORIENTED_EDGE ( 'NONE', *, *, #159, .F. ) ;
#61 = CARTESIAN_POINT ( 'NONE',  ( 13.99999999999999100, -27.99999999999999300, 1.000000000000000000 ) ) ;
#62 = CARTESIAN_POINT ( 'NONE',  ( 12.75735931288071300, -3.124651849618408300E-015, 4.000000000000000000 ) ) ;
#63 = VERTEX_POINT ( 'NONE', #4 ) ;
#64 =( BOUNDED_SURFACE ( )  B_SPLINE_SURFACE ( 3, 3, ( 
 ( #177, #50, #9, #37 ),
 ( #52, #181, #8, #69 ),
 ( #192, #86, #212, #122 ),
 ( #106, #126, #54, #194 ) ),
 .UNSPECIFIED., .F., .F., .F. ) 
 B_SPLINE_SURFACE_WITH_KNOTS ( ( 4, 4 ),
 ( 4, 4 ),
 ( 0.0000000000000000000, 1.000000000000000000 ),
 ( 0.0000000000000000000, 1.000000000000000000 ),
 .UNSPECIFIED. ) 
 GEOMETRIC_REPRESENTATION_ITEM ( )  RATIONAL_B_SPLINE_SURFACE ( (
 ( 1.000000000000000000, 0.3333333333333334300, 0.3333333333333334300, 1.000000000000000000),
 ( 0.8047378541243649400, 0.2682459513747884100, 0.2682459513747884100, 0.8047378541243649400),
 ( 0.8047378541243649400, 0.2682459513747884100, 0.2682459513747884100, 0.8047378541243649400),
 ( 1.000000000000000000, 0.3333333333333334300, 0.3333333333333334300, 1.000000000000000000) ) ) 
 REPRESENTATION_ITEM ( '' )  SURFACE ( )  );
#65 = CARTESIAN_POINT ( 'NONE',  ( 0.0000000000000000000, 0.0000000000000000000, 1.000000000000000000 ) ) ;
#66 = ORIENTED_EDGE ( 'NONE', *, *, #170, .F. ) ;
#67 = CARTESIAN_POINT ( 'NONE',  ( -11.00000000000000000, -2.020667218593131100E-015, 4.000000000000000000 ) ) ;
#68 = DIRECTION ( 'NONE',  ( -1.000000000000000000, 0.0000000000000000000, 0.0000000000000000000 ) ) ;
#69 = CARTESIAN_POINT ( 'NONE',  ( -12.75735931288071300, 3.124651849618408300E-015, 4.000000000000000000 ) ) ;
#70 = PRESENTATION_LAYER_ASSIGNMENT (  '', '', ( #110 ) ) ;
#71 = DIRECTION ( 'NONE',  ( 0.0000000000000000000, 0.0000000000000000000, 1.000000000000000000 ) ) ;
#72 = VERTEX_POINT ( 'NONE', #102 ) ;
#73 =( LENGTH_UNIT ( ) NAMED_UNIT ( * ) SI_UNIT ( .MILLI., .METRE. ) );
#74 = CARTESIAN_POINT ( 'NONE',  ( 0.0000000000000000000, 0.0000000000000000000, 0.0000000000000000000 ) ) ;
#75 = AXIS2_PLACEMENT_3D ( 'NONE', #10, #85, #124 ) ;
#76 =( NAMED_UNIT ( * ) PLANE_ANGLE_UNIT ( ) SI_UNIT ( $, .RADIAN. ) );
#77 = ORIENTED_EDGE ( 'NONE', *, *, #170, .T. ) ;
#78 = ORIENTED_EDGE ( 'NONE', *, *, #164, .T. ) ;
#79 = EDGE_CURVE ( 'NONE', #1, #107, #113, .T. ) ;
#80 = ADVANCED_FACE ( 'NONE', ( #104 ), #211, .T. ) ;
#81 = CARTESIAN_POINT ( 'NONE',  ( 14.00000000000000000, -3.429011037612589300E-015, 1.000000000000000000 ) ) ;
#82 = PRODUCT_CONTEXT ( 'NONE', #49, 'mechanical' ) ;
#83 = MECHANICAL_DESIGN_GEOMETRIC_PRESENTATION_REPRESENTATION (  '', ( #136 ), #189 ) ;
#84 =( LENGTH_UNIT ( ) NAMED_UNIT ( * ) SI_UNIT ( .MILLI., .METRE. ) );
#85 = DIRECTION ( 'NONE',  ( 0.0000000000000000000, 0.0000000000000000000, 1.000000000000000000 ) ) ;
#86 = CARTESIAN_POINT ( 'NONE',  ( 14.00000000000000000, 27.99999999999998200, 2.757359312880715200 ) ) ;
#87 = CARTESIAN_POINT ( 'NONE',  ( 0.0000000000000000000, 0.0000000000000000000, 4.000000000000000000 ) ) ;
#88 = FILL_AREA_STYLE_COLOUR ( '', #109 ) ;
#89 = CARTESIAN_POINT ( 'NONE',  ( 11.00000000000000000, -1.347111479062088400E-015, 1.000000000000000000 ) ) ;
#90 = ORIENTED_EDGE ( 'NONE', *, *, #143, .F. ) ;
#91 = EDGE_CURVE ( 'NONE', #63, #27, #149, .T. ) ;
#92 =( BOUNDED_SURFACE ( )  B_SPLINE_SURFACE ( 3, 3, ( 
 ( #114, #112, #99, #147 ),
 ( #98, #116, #169, #62 ),
 ( #47, #171, #34, #6 ),
 ( #117, #205, #61, #183 ) ),
 .UNSPECIFIED., .F., .F., .T. ) 
 B_SPLINE_SURFACE_WITH_KNOTS ( ( 4, 4 ),
 ( 4, 4 ),
 ( 0.0000000000000000000, 1.000000000000000000 ),
 ( 0.0000000000000000000, 1.000000000000000000 ),
 .UNSPECIFIED. ) 
 GEOMETRIC_REPRESENTATION_ITEM ( )  RATIONAL_B_SPLINE_SURFACE ( (
 ( 1.000000000000000000, 0.3333333333333334300, 0.3333333333333334300, 1.000000000000000000),
 ( 0.8047378541243649400, 0.2682459513747884100, 0.2682459513747884100, 0.8047378541243649400),
 ( 0.8047378541243649400, 0.2682459513747884100, 0.2682459513747884100, 0.8047378541243649400),
 ( 1.000000000000000000, 0.3333333333333334300, 0.3333333333333334300, 1.000000000000000000) ) ) 
 REPRESENTATION_ITEM ( '' )  SURFACE ( )  );
#93 = EDGE_LOOP ( 'NONE', ( #90, #176, #127, #78 ) ) ;
#94 = CYLINDRICAL_SURFACE ( 'NONE', #25, 14.00000000000000000 ) ;
#95 =( BOUNDED_CURVE ( )  B_SPLINE_CURVE ( 3, ( #56, #140, #41, #12 ),
 .UNSPECIFIED., .F., .F. ) 
 B_SPLINE_CURVE_WITH_KNOTS ( ( 4, 4 ),
 ( 0.5000000000000000000, 1.000000000000000000 ),
 .UNSPECIFIED. ) 
 CURVE ( )  GEOMETRIC_REPRESENTATION_ITEM ( )  RATIONAL_B_SPLINE_CURVE ( ( 1.000000000000000000, 0.3333333333333333700, 0.3333333333333333700, 1.000000000000000000 ) ) 
 REPRESENTATION_ITEM ( '' )  );
#96 = LINE ( 'NONE', #119, #55 ) ;
#97 = DIRECTION ( 'NONE',  ( 1.000000000000000000, 0.0000000000000000000, 0.0000000000000000000 ) ) ;
#98 = CARTESIAN_POINT ( 'NONE',  ( -12.75735931288071300, 1.562325924809204200E-015, 4.000000000000000000 ) ) ;
#99 = CARTESIAN_POINT ( 'NONE',  ( 10.99999999999999500, -22.00000000000000000, 4.000000000000000000 ) ) ;
#100 = SURFACE_SIDE_STYLE ('',( #46 ) ) ;
#101 = SURFACE_STYLE_FILL_AREA ( #163 ) ;
#102 = CARTESIAN_POINT ( 'NONE',  ( -14.00000000000000000, 1.714505518806294600E-015, 1.000000000000000000 ) ) ;
#103 = DIRECTION ( 'NONE',  ( 0.0000000000000000000, 0.0000000000000000000, 1.000000000000000000 ) ) ;
#104 = FACE_OUTER_BOUND ( 'NONE', #19, .T. ) ;
#105 = CARTESIAN_POINT ( 'NONE',  ( 0.0000000000000000000, 0.0000000000000000000, 0.0000000000000000000 ) ) ;
#106 = CARTESIAN_POINT ( 'NONE',  ( 13.99999999999999800, -1.714505518806294400E-015, 1.000000000000000000 ) ) ;
#107 = VERTEX_POINT ( 'NONE', #154 ) ;
#108 = CIRCLE ( 'NONE', #195, 14.00000000000000000 ) ;
#109 = COLOUR_RGB ( '',0.7529411764705882200, 0.7529411764705882200, 0.7529411764705882200 ) ;
#110 = STYLED_ITEM ( 'NONE', ( #148 ), #208 ) ;
#111 = EDGE_LOOP ( 'NONE', ( #29, #35 ) ) ;
#112 = CARTESIAN_POINT ( 'NONE',  ( -11.00000000000000400, -21.99999999999999600, 4.000000000000000000 ) ) ;
#113 =( BOUNDED_CURVE ( )  B_SPLINE_CURVE ( 3, ( #155, #137, #193, #67 ),
 .UNSPECIFIED., .F., .T. ) 
 B_SPLINE_CURVE_WITH_KNOTS ( ( 4, 4 ),
 ( 0.0000000000000000000, 0.5000000000000000000 ),
 .UNSPECIFIED. ) 
 CURVE ( )  GEOMETRIC_REPRESENTATION_ITEM ( )  RATIONAL_B_SPLINE_CURVE ( ( 1.000000000000000000, 0.3333333333333333700, 0.3333333333333333700, 1.000000000000000000 ) ) 
 REPRESENTATION_ITEM ( '' )  );
#114 = CARTESIAN_POINT ( 'NONE',  ( -11.00000000000000000, 1.347111479062088400E-015, 4.000000000000000000 ) ) ;
#115 = ORIENTED_EDGE ( 'NONE', *, *, #180, .T. ) ;
#116 = CARTESIAN_POINT ( 'NONE',  ( -12.75735931288071400, -25.51471862576142200, 4.000000000000000000 ) ) ;
#117 = CARTESIAN_POINT ( 'NONE',  ( -13.99999999999999800, 1.714505518806294400E-015, 1.000000000000000000 ) ) ;
#118 = ORIENTED_EDGE ( 'NONE', *, *, #91, .F. ) ;
#119 = CARTESIAN_POINT ( 'NONE',  ( -14.00000000000000000, 1.714505518806294600E-015, 0.0000000000000000000 ) ) ;
#120 = AXIS2_PLACEMENT_3D ( 'NONE', #74, #11, #198 ) ;
#121 = EDGE_CURVE ( 'NONE', #63, #182, #196, .T. ) ;
#122 = CARTESIAN_POINT ( 'NONE',  ( -13.99999999999999600, 3.429011037612588500E-015, 2.757359312880715200 ) ) ;
#123 = EDGE_LOOP ( 'NONE', ( #115, #216, #66, #60 ) ) ;
#124 = DIRECTION ( 'NONE',  ( 1.000000000000000000, 0.0000000000000000000, 0.0000000000000000000 ) ) ;
#125 = AXIS2_PLACEMENT_3D ( 'NONE', #44, #24, #138 ) ;
#126 = CARTESIAN_POINT ( 'NONE',  ( 14.00000000000000200, 27.99999999999998900, 1.000000000000000000 ) ) ;
#127 = ORIENTED_EDGE ( 'NONE', *, *, #91, .T. ) ;
#128 = ORIENTED_EDGE ( 'NONE', *, *, #164, .F. ) ;
#129 = EDGE_LOOP ( 'NONE', ( #204, #167, #77, #118 ) ) ;
#130 = CARTESIAN_POINT ( 'NONE',  ( 0.0000000000000000000, 0.0000000000000000000, 0.0000000000000000000 ) ) ;
#131 =( NAMED_UNIT ( * ) SI_UNIT ( $, .STERADIAN. ) SOLID_ANGLE_UNIT ( ) );
#132 =( LENGTH_UNIT ( ) NAMED_UNIT ( * ) SI_UNIT ( .MILLI., .METRE. ) );
#133 = DIRECTION ( 'NONE',  ( -0.0000000000000000000, -0.0000000000000000000, -1.000000000000000000 ) ) ;
#134 = CARTESIAN_POINT ( 'NONE',  ( -11.00000000000000000, 0.0000000000000000000, 1.000000000000000000 ) ) ;
#135 = PLANE ( 'NONE',  #210 ) ;
#136 = STYLED_ITEM ( 'NONE', ( #166 ), #53 ) ;
#137 = CARTESIAN_POINT ( 'NONE',  ( 10.99999999999999600, -21.99999999999999600, 4.000000000000000000 ) ) ;
#138 = DIRECTION ( 'NONE',  ( 1.000000000000000000, 0.0000000000000000000, 0.0000000000000000000 ) ) ;
#139 = AXIS2_PLACEMENT_3D ( 'NONE', #105, #173, #97 ) ;
#140 = CARTESIAN_POINT ( 'NONE',  ( -11.00000000000000000, 21.99999999999999600, 4.000000000000000000 ) ) ;
#141 = COLOUR_RGB ( '',0.0000000000000000000, 0.0000000000000000000, 0.0000000000000000000 ) ;
#142 = FACE_OUTER_BOUND ( 'NONE', #31, .T. ) ;
#143 = EDGE_CURVE ( 'NONE', #182, #72, #96, .T. ) ;
#144 = CIRCLE ( 'NONE', #125, 14.00000000000000000 ) ;
#145 = CARTESIAN_POINT ( 'NONE',  ( 11.00000000000000000, -6.735557395310442000E-016, 4.000000000000000000 ) ) ;
#146 =( NAMED_UNIT ( * ) PLANE_ANGLE_UNIT ( ) SI_UNIT ( $, .RADIAN. ) );
#147 = CARTESIAN_POINT ( 'NONE',  ( 11.00000000000000000, -2.694222958124176800E-015, 4.000000000000000000 ) ) ;
#148 = PRESENTATION_STYLE_ASSIGNMENT (( #185 ) ) ;
#149 = LINE ( 'NONE', #209, #59 ) ;
#150 = FILL_AREA_STYLE ('',( #88 ) ) ;
#151 = PRODUCT_DEFINITION_FORMATION_WITH_SPECIFIED_SOURCE ( 'ANY', '', #45, .NOT_KNOWN. ) ;
#152 = APPLICATION_PROTOCOL_DEFINITION ( 'draft international standard', 'automotive_design', 1998, #49 ) ;
#153 =( NAMED_UNIT ( * ) PLANE_ANGLE_UNIT ( ) SI_UNIT ( $, .RADIAN. ) );
#154 = CARTESIAN_POINT ( 'NONE',  ( -11.00000000000000000, -2.020667218593131100E-015, 4.000000000000000000 ) ) ;
#155 = CARTESIAN_POINT ( 'NONE',  ( 11.00000000000000000, -6.735557395310442000E-016, 4.000000000000000000 ) ) ;
#156 = SHAPE_DEFINITION_REPRESENTATION ( #48, #53 ) ;
#157 = DIRECTION ( 'NONE',  ( 1.000000000000000000, 0.0000000000000000000, 0.0000000000000000000 ) ) ;
#158 = FACE_OUTER_BOUND ( 'NONE', #111, .T. ) ;
#159 = EDGE_CURVE ( 'NONE', #107, #72, #14, .T. ) ;
#160 = DIRECTION ( 'NONE',  ( 1.224646799147353200E-016, 1.000000000000000000, 0.0000000000000000000 ) ) ;
#161 = DIRECTION ( 'NONE',  ( 1.000000000000000000, -1.224646799147353500E-016, 0.0000000000000000000 ) ) ;
#162 = CLOSED_SHELL ( 'NONE', ( #168, #187, #33, #2, #15, #80 ) ) ;
#163 = FILL_AREA_STYLE ('',( #184 ) ) ;
#164 = EDGE_CURVE ( 'NONE', #27, #72, #108, .T. ) ;
#165 = ORIENTED_EDGE ( 'NONE', *, *, #79, .F. ) ;
#166 = PRESENTATION_STYLE_ASSIGNMENT (( #3 ) ) ;
#167 = ORIENTED_EDGE ( 'NONE', *, *, #143, .T. ) ;
#168 = ADVANCED_FACE ( 'NONE', ( #188 ), #64, .T. ) ;
#169 = CARTESIAN_POINT ( 'NONE',  ( 12.75735931288070700, -25.51471862576142500, 4.000000000000000000 ) ) ;
#170 = EDGE_CURVE ( 'NONE', #72, #27, #144, .T. ) ;
#171 = CARTESIAN_POINT ( 'NONE',  ( -14.00000000000000000, -27.99999999999998200, 2.757359312880715200 ) ) ;
#172 = ORIENTED_EDGE ( 'NONE', *, *, #79, .T. ) ;
#173 = DIRECTION ( 'NONE',  ( 0.0000000000000000000, 0.0000000000000000000, 1.000000000000000000 ) ) ;
#174 = AXIS2_PLACEMENT_3D ( 'NONE', #130, #175, #32 ) ;
#175 = DIRECTION ( 'NONE',  ( 0.0000000000000000000, 0.0000000000000000000, 1.000000000000000000 ) ) ;
#176 = ORIENTED_EDGE ( 'NONE', *, *, #190, .T. ) ;
#177 = CARTESIAN_POINT ( 'NONE',  ( 11.00000000000000000, -1.347111479062088400E-015, 4.000000000000000000 ) ) ;
#178 =( GEOMETRIC_REPRESENTATION_CONTEXT ( 3 ) GLOBAL_UNCERTAINTY_ASSIGNED_CONTEXT ( ( #202 ) ) GLOBAL_UNIT_ASSIGNED_CONTEXT ( ( #73, #76, #199 ) ) REPRESENTATION_CONTEXT ( 'NONE', 'WORKASPACE' ) );
#179 = CARTESIAN_POINT ( 'NONE',  ( 0.0000000000000000000, 0.0000000000000000000, 0.0000000000000000000 ) ) ;
#180 = EDGE_CURVE ( 'NONE', #107, #1, #95, .T. ) ;
#181 = CARTESIAN_POINT ( 'NONE',  ( 12.75735931288071400, 25.51471862576142200, 4.000000000000000000 ) ) ;
#182 = VERTEX_POINT ( 'NONE', #214 ) ;
#183 = CARTESIAN_POINT ( 'NONE',  ( 13.99999999999999800, -3.429011037612588900E-015, 1.000000000000000000 ) ) ;
#184 = FILL_AREA_STYLE_COLOUR ( '', #141 ) ;
#185 = SURFACE_STYLE_USAGE ( .BOTH. , #57 ) ;
#186 = PRESENTATION_LAYER_ASSIGNMENT (  '', '', ( #136 ) ) ;
#187 = ADVANCED_FACE ( 'NONE', ( #200 ), #94, .T. ) ;
#188 = FACE_OUTER_BOUND ( 'NONE', #123, .T. ) ;
#189 =( GEOMETRIC_REPRESENTATION_CONTEXT ( 3 ) GLOBAL_UNCERTAINTY_ASSIGNED_CONTEXT ( ( #23 ) ) GLOBAL_UNIT_ASSIGNED_CONTEXT ( ( #84, #146, #18 ) ) REPRESENTATION_CONTEXT ( 'NONE', 'WORKASPACE' ) );
#190 = EDGE_CURVE ( 'NONE', #182, #63, #58, .T. ) ;
#191 = DIRECTION ( 'NONE',  ( 1.000000000000000000, 0.0000000000000000000, -0.0000000000000000000 ) ) ;
#192 = CARTESIAN_POINT ( 'NONE',  ( 13.99999999999999600, -1.714505518806294400E-015, 2.757359312880715200 ) ) ;
#193 = CARTESIAN_POINT ( 'NONE',  ( -11.00000000000000000, -21.99999999999999600, 4.000000000000000000 ) ) ;
#194 = CARTESIAN_POINT ( 'NONE',  ( -13.99999999999999800, 3.429011037612588900E-015, 1.000000000000000000 ) ) ;
#195 = AXIS2_PLACEMENT_3D ( 'NONE', #65, #133, #51 ) ;
#196 = CIRCLE ( 'NONE', #75, 14.00000000000000000 ) ;
#197 = PRODUCT_DEFINITION_CONTEXT ( 'detailed design', #7, 'design' ) ;
#198 = DIRECTION ( 'NONE',  ( 1.000000000000000000, 0.0000000000000000000, 0.0000000000000000000 ) ) ;
#199 =( NAMED_UNIT ( * ) SI_UNIT ( $, .STERADIAN. ) SOLID_ANGLE_UNIT ( ) );
#200 = FACE_OUTER_BOUND ( 'NONE', #129, .T. ) ;
#201 = EDGE_CURVE ( 'NONE', #1, #27, #16, .T. ) ;
#202 = UNCERTAINTY_MEASURE_WITH_UNIT (LENGTH_MEASURE( 1.000000000000000100E-005 ), #73, 'distance_accuracy_value', 'NONE');
#203 = PRODUCT_DEFINITION ( 'UNKNOWN', '', #151, #197 ) ;
#204 = ORIENTED_EDGE ( 'NONE', *, *, #121, .T. ) ;
#205 = CARTESIAN_POINT ( 'NONE',  ( -14.00000000000000200, -27.99999999999998900, 1.000000000000000000 ) ) ;
#206 = APPLICATION_PROTOCOL_DEFINITION ( 'draft international standard', 'automotive_design', 1998, #7 ) ;
#207 = AXIS2_PLACEMENT_3D ( 'NONE', #89, #160, #161 ) ;
#208 = MANIFOLD_SOLID_BREP ( 'Importiert1', #162 ) ;
#209 = CARTESIAN_POINT ( 'NONE',  ( 14.00000000000000000, 0.0000000000000000000, 0.0000000000000000000 ) ) ;
#210 = AXIS2_PLACEMENT_3D ( 'NONE', #179, #36, #191 ) ;
#211 = PLANE ( 'NONE',  #26 ) ;
#212 = CARTESIAN_POINT ( 'NONE',  ( -13.99999999999998800, 27.99999999999998600, 2.757359312880715200 ) ) ;
#213 = DIRECTION ( 'NONE',  ( 1.000000000000000000, 0.0000000000000000000, -0.0000000000000000000 ) ) ;
#214 = CARTESIAN_POINT ( 'NONE',  ( -14.00000000000000000, 1.714505518806294600E-015, 0.0000000000000000000 ) ) ;
#215 = ORIENTED_EDGE ( 'NONE', *, *, #159, .T. ) ;
#216 = ORIENTED_EDGE ( 'NONE', *, *, #201, .T. ) ;
ENDSEC;
END-ISO-10303-21;
