ISO-10303-21;
HEADER;
FILE_DESCRIPTION (( 'STEP AP214' ),
    '1' );
FILE_NAME ('5HSWG002',
    '2019-02-01T12:50:13',
    ( '' ),
    ('JUGARD+KÜNSTNER GmbH'),
    'SwSTEP 2.0',
    'SolidWorks 2017',
    '' );
FILE_SCHEMA (( 'AUTOMOTIVE_DESIGN' ));
ENDSEC;

DATA;
#1 = VECTOR ( 'NONE', #57, 1000.000000000000000 ) ;
#2 = ORIENTED_EDGE ( 'NONE', *, *, #212, .T. ) ;
#3 = PRESENTATION_LAYER_ASSIGNMENT (  '', '', ( #220 ) ) ;
#4 = FILL_AREA_STYLE_COLOUR ( '', #145 ) ;
#5 = EDGE_LOOP ( 'NONE', ( #221, #33, #139, #82 ) ) ;
#6 = DIRECTION ( 'NONE',  ( -1.000000000000000000, -0.0000000000000000000, 0.0000000000000000000 ) ) ;
#7 = EDGE_CURVE ( 'NONE', #117, #155, #183, .T. ) ;
#8 =( NAMED_UNIT ( * ) SI_UNIT ( $, .STERADIAN. ) SOLID_ANGLE_UNIT ( ) );
#9 = CARTESIAN_POINT ( 'NONE',  ( -682.0000000000350200, 282.0000000000150100, 4.000000000000000000 ) ) ;
#10 = ADVANCED_FACE ( 'NONE', ( #55 ), #153, .F. ) ;
#11 = MECHANICAL_DESIGN_GEOMETRIC_PRESENTATION_REPRESENTATION (  '', ( #118 ), #207 ) ;
#12 = DIRECTION ( 'NONE',  ( 1.000000000000000000, 0.0000000000000000000, -0.0000000000000000000 ) ) ;
#13 = SURFACE_SIDE_STYLE ('',( #58 ) ) ;
#14 = CARTESIAN_POINT ( 'NONE',  ( 1617.999999999970200, -717.9999999999849900, 4.000000000000000000 ) ) ;
#15 = MECHANICAL_DESIGN_GEOMETRIC_PRESENTATION_REPRESENTATION (  '', ( #220 ), #70 ) ;
#16 = PRESENTATION_STYLE_ASSIGNMENT (( #169 ) ) ;
#17 = ORIENTED_EDGE ( 'NONE', *, *, #52, .F. ) ;
#18 = PRESENTATION_LAYER_ASSIGNMENT (  '', '', ( #164 ) ) ;
#19 = VECTOR ( 'NONE', #79, 1000.000000000000000 ) ;
#20 = ORIENTED_EDGE ( 'NONE', *, *, #160, .F. ) ;
#21 = DIRECTION ( 'NONE',  ( 1.000000000000000000, 0.0000000000000000000, -0.0000000000000000000 ) ) ;
#22 = CARTESIAN_POINT ( 'NONE',  ( -682.0000000000350200, 282.0000000000150100, 4.000000000000000000 ) ) ;
#23 =( LENGTH_UNIT ( ) NAMED_UNIT ( * ) SI_UNIT ( .MILLI., .METRE. ) );
#24 = SHAPE_DEFINITION_REPRESENTATION ( #181, #199 ) ;
#25 = AXIS2_PLACEMENT_3D ( 'NONE', #22, #69, #143 ) ;
#26 = PLANE ( 'NONE',  #174 ) ;
#27 = APPLICATION_PROTOCOL_DEFINITION ( 'draft international standard', 'automotive_design', 1998, #115 ) ;
#28 = MECHANICAL_DESIGN_GEOMETRIC_PRESENTATION_REPRESENTATION (  '', ( #164 ), #95 ) ;
#29 = CARTESIAN_POINT ( 'NONE',  ( 0.0000000000000000000, 0.0000000000000000000, 0.0000000000000000000 ) ) ;
#30 = COLOUR_RGB ( '',0.5686274509803921400, 0.6078431372549019100, 0.6470588235294118000 ) ;
#31 = LINE ( 'NONE', #47, #130 ) ;
#32 = ORIENTED_EDGE ( 'NONE', *, *, #7, .T. ) ;
#33 = ORIENTED_EDGE ( 'NONE', *, *, #88, .F. ) ;
#34 = DIRECTION ( 'NONE',  ( 0.0000000000000000000, 0.0000000000000000000, 1.000000000000000000 ) ) ;
#35 = SURFACE_SIDE_STYLE ('',( #105 ) ) ;
#36 = ORIENTED_EDGE ( 'NONE', *, *, #180, .F. ) ;
#37 = VERTEX_POINT ( 'NONE', #68 ) ;
#38 = DIRECTION ( 'NONE',  ( 0.0000000000000000000, 0.0000000000000000000, -1.000000000000000000 ) ) ;
#39 = CARTESIAN_POINT ( 'NONE',  ( -682.0000000000350200, 282.0000000000150100, 4.000000000000000000 ) ) ;
#40 = PRODUCT ( '5HSWG002_CNAJF00', '5HSWG002_CNAJF00', '', ( #230 ) ) ;
#41 = ADVANCED_FACE ( 'NONE', ( #124 ), #175, .T. ) ;
#42 =( NAMED_UNIT ( * ) PLANE_ANGLE_UNIT ( ) SI_UNIT ( $, .RADIAN. ) );
#43 = VECTOR ( 'NONE', #6, 1000.000000000000000 ) ;
#44 = ORIENTED_EDGE ( 'NONE', *, *, #187, .T. ) ;
#45 = CARTESIAN_POINT ( 'NONE',  ( 1617.999999999970200, 282.0000000000150100, 4.000000000000000000 ) ) ;
#46 = ORIENTED_EDGE ( 'NONE', *, *, #67, .F. ) ;
#47 = CARTESIAN_POINT ( 'NONE',  ( 1617.999999999970200, 282.0000000000150100, 4.000000000000000000 ) ) ;
#48 = CARTESIAN_POINT ( 'NONE',  ( -682.0000000000350200, 282.0000000000150100, 0.0000000000000000000 ) ) ;
#49 =( LENGTH_UNIT ( ) NAMED_UNIT ( * ) SI_UNIT ( .MILLI., .METRE. ) );
#50 = SURFACE_STYLE_FILL_AREA ( #103 ) ;
#51 =( NAMED_UNIT ( * ) PLANE_ANGLE_UNIT ( ) SI_UNIT ( $, .RADIAN. ) );
#52 = EDGE_CURVE ( 'NONE', #155, #37, #86, .T. ) ;
#53 = VECTOR ( 'NONE', #149, 1000.000000000000000 ) ;
#54 = ORIENTED_EDGE ( 'NONE', *, *, #187, .F. ) ;
#55 = FACE_OUTER_BOUND ( 'NONE', #5, .T. ) ;
#56 = UNCERTAINTY_MEASURE_WITH_UNIT (LENGTH_MEASURE( 1.000000000000000100E-005 ), #193, 'distance_accuracy_value', 'NONE');
#57 = DIRECTION ( 'NONE',  ( 0.0000000000000000000, 0.0000000000000000000, 1.000000000000000000 ) ) ;
#58 = SURFACE_STYLE_FILL_AREA ( #111 ) ;
#59 = EDGE_CURVE ( 'NONE', #81, #117, #76, .T. ) ;
#60 = CARTESIAN_POINT ( 'NONE',  ( 1617.999999999970200, -717.9999999999849900, 0.0000000000000000000 ) ) ;
#61 = DIRECTION ( 'NONE',  ( 1.000000000000000000, 0.0000000000000000000, 0.0000000000000000000 ) ) ;
#62 = VECTOR ( 'NONE', #93, 1000.000000000000000 ) ;
#63 = EDGE_LOOP ( 'NONE', ( #2, #210, #72, #213 ) ) ;
#64 = PRODUCT_DEFINITION_CONTEXT ( 'detailed design', #228, 'design' ) ;
#65 = FILL_AREA_STYLE ('',( #4 ) ) ;
#66 = AXIS2_PLACEMENT_3D ( 'NONE', #29, #114, #61 ) ;
#67 = EDGE_CURVE ( 'NONE', #117, #171, #173, .T. ) ;
#68 = CARTESIAN_POINT ( 'NONE',  ( 1617.999999999970200, -717.9999999999849900, 0.0000000000000000000 ) ) ;
#69 = DIRECTION ( 'NONE',  ( 1.000000000000000000, 0.0000000000000000000, 0.0000000000000000000 ) ) ;
#70 =( GEOMETRIC_REPRESENTATION_CONTEXT ( 3 ) GLOBAL_UNCERTAINTY_ASSIGNED_CONTEXT ( ( #84 ) ) GLOBAL_UNIT_ASSIGNED_CONTEXT ( ( #49, #204, #8 ) ) REPRESENTATION_CONTEXT ( 'NONE', 'WORKASPACE' ) );
#71 = FILL_AREA_STYLE_COLOUR ( '', #30 ) ;
#72 = ORIENTED_EDGE ( 'NONE', *, *, #227, .F. ) ;
#73 = PLANE ( 'NONE',  #167 ) ;
#74 = CARTESIAN_POINT ( 'NONE',  ( -682.0000000000350200, -717.9999999999849900, 0.0000000000000000000 ) ) ;
#75 = PRESENTATION_STYLE_ASSIGNMENT (( #184 ) ) ;
#76 = LINE ( 'NONE', #158, #43 ) ;
#77 = CARTESIAN_POINT ( 'NONE',  ( 1617.999999999970200, -717.9999999999849900, 4.000000000000000000 ) ) ;
#78 =( GEOMETRIC_REPRESENTATION_CONTEXT ( 3 ) GLOBAL_UNCERTAINTY_ASSIGNED_CONTEXT ( ( #152 ) ) GLOBAL_UNIT_ASSIGNED_CONTEXT ( ( #94, #42, #205 ) ) REPRESENTATION_CONTEXT ( 'NONE', 'WORKASPACE' ) );
#79 = DIRECTION ( 'NONE',  ( 0.0000000000000000000, 1.000000000000000000, -0.0000000000000000000 ) ) ;
#80 =( NAMED_UNIT ( * ) PLANE_ANGLE_UNIT ( ) SI_UNIT ( $, .RADIAN. ) );
#81 = VERTEX_POINT ( 'NONE', #178 ) ;
#82 = ORIENTED_EDGE ( 'NONE', *, *, #59, .T. ) ;
#83 =( NAMED_UNIT ( * ) PLANE_ANGLE_UNIT ( ) SI_UNIT ( $, .RADIAN. ) );
#84 = UNCERTAINTY_MEASURE_WITH_UNIT (LENGTH_MEASURE( 1.000000000000000100E-005 ), #49, 'distance_accuracy_value', 'NONE');
#85 = CARTESIAN_POINT ( 'NONE',  ( -682.0000000000350200, -717.9999999999849900, 4.000000000000000000 ) ) ;
#86 = LINE ( 'NONE', #92, #231 ) ;
#87 = CARTESIAN_POINT ( 'NONE',  ( -682.0000000000350200, 282.0000000000150100, 4.000000000000000000 ) ) ;
#88 = EDGE_CURVE ( 'NONE', #99, #171, #31, .T. ) ;
#89 = COLOUR_RGB ( '',0.0000000000000000000, 0.0000000000000000000, 0.0000000000000000000 ) ;
#90 = VECTOR ( 'NONE', #172, 1000.000000000000000 ) ;
#91 = ORIENTED_EDGE ( 'NONE', *, *, #160, .T. ) ;
#92 = CARTESIAN_POINT ( 'NONE',  ( -682.0000000000350200, -717.9999999999849900, 0.0000000000000000000 ) ) ;
#93 = DIRECTION ( 'NONE',  ( -0.0000000000000000000, 1.000000000000000000, 0.0000000000000000000 ) ) ;
#94 =( LENGTH_UNIT ( ) NAMED_UNIT ( * ) SI_UNIT ( .MILLI., .METRE. ) );
#95 =( GEOMETRIC_REPRESENTATION_CONTEXT ( 3 ) GLOBAL_UNCERTAINTY_ASSIGNED_CONTEXT ( ( #56 ) ) GLOBAL_UNIT_ASSIGNED_CONTEXT ( ( #193, #83, #215 ) ) REPRESENTATION_CONTEXT ( 'NONE', 'WORKASPACE' ) );
#96 = PRODUCT_DEFINITION ( 'UNKNOWN', '', #102, #64 ) ;
#97 = PRESENTATION_STYLE_ASSIGNMENT (( #137 ) ) ;
#98 = ORIENTED_EDGE ( 'NONE', *, *, #52, .T. ) ;
#99 = VERTEX_POINT ( 'NONE', #163 ) ;
#100 = DIRECTION ( 'NONE',  ( 0.0000000000000000000, -1.000000000000000000, 0.0000000000000000000 ) ) ;
#101 = CARTESIAN_POINT ( 'NONE',  ( -682.0000000000350200, -717.9999999999849900, 4.000000000000000000 ) ) ;
#102 = PRODUCT_DEFINITION_FORMATION_WITH_SPECIFIED_SOURCE ( 'ANY', '', #40, .NOT_KNOWN. ) ;
#103 = FILL_AREA_STYLE ('',( #126 ) ) ;
#104 = DIRECTION ( 'NONE',  ( -1.000000000000000000, -0.0000000000000000000, -0.0000000000000000000 ) ) ;
#105 = SURFACE_STYLE_FILL_AREA ( #196 ) ;
#106 = AXIS2_PLACEMENT_3D ( 'NONE', #122, #176, #127 ) ;
#107 = DIRECTION ( 'NONE',  ( 1.000000000000000000, 0.0000000000000000000, -0.0000000000000000000 ) ) ;
#108 = VECTOR ( 'NONE', #21, 1000.000000000000000 ) ;
#109 = ORIENTED_EDGE ( 'NONE', *, *, #88, .T. ) ;
#110 = PRESENTATION_LAYER_ASSIGNMENT (  '', '', ( #156 ) ) ;
#111 = FILL_AREA_STYLE ('',( #132 ) ) ;
#112 = LINE ( 'NONE', #39, #53 ) ;
#113 = MANIFOLD_SOLID_BREP ( 'Importiert1', #140 ) ;
#114 = DIRECTION ( 'NONE',  ( 0.0000000000000000000, 0.0000000000000000000, 1.000000000000000000 ) ) ;
#115 = APPLICATION_CONTEXT ( 'automotive_design' ) ;
#116 = EDGE_LOOP ( 'NONE', ( #36, #54, #46, #32 ) ) ;
#117 = VERTEX_POINT ( 'NONE', #48 ) ;
#118 = STYLED_ITEM ( 'NONE', ( #217 ), #113 ) ;
#119 = SURFACE_SIDE_STYLE ('',( #225 ) ) ;
#120 = FACE_OUTER_BOUND ( 'NONE', #226, .T. ) ;
#121 = MECHANICAL_DESIGN_GEOMETRIC_PRESENTATION_REPRESENTATION (  '', ( #156 ), #170 ) ;
#122 = CARTESIAN_POINT ( 'NONE',  ( -682.0000000000350200, -717.9999999999849900, 4.000000000000000000 ) ) ;
#123 = ADVANCED_FACE ( 'NONE', ( #211 ), #26, .F. ) ;
#124 = FACE_OUTER_BOUND ( 'NONE', #135, .T. ) ;
#125 = ORIENTED_EDGE ( 'NONE', *, *, #192, .T. ) ;
#126 = FILL_AREA_STYLE_COLOUR ( '', #89 ) ;
#127 = DIRECTION ( 'NONE',  ( 1.000000000000000000, 0.0000000000000000000, -0.0000000000000000000 ) ) ;
#128 = ORIENTED_EDGE ( 'NONE', *, *, #197, .F. ) ;
#129 = ADVANCED_FACE ( 'NONE', ( #120 ), #73, .F. ) ;
#130 = VECTOR ( 'NONE', #104, 1000.000000000000000 ) ;
#131 = PLANE ( 'NONE',  #25 ) ;
#132 = FILL_AREA_STYLE_COLOUR ( '', #206 ) ;
#133 = PRESENTATION_LAYER_ASSIGNMENT (  '', '', ( #118 ) ) ;
#134 = CARTESIAN_POINT ( 'NONE',  ( -682.0000000000350200, -717.9999999999849900, 4.000000000000000000 ) ) ;
#135 = EDGE_LOOP ( 'NONE', ( #125, #109, #44, #91 ) ) ;
#136 = LINE ( 'NONE', #60, #62 ) ;
#137 = SURFACE_STYLE_USAGE ( .BOTH. , #119 ) ;
#138 = LINE ( 'NONE', #77, #1 ) ;
#139 = ORIENTED_EDGE ( 'NONE', *, *, #212, .F. ) ;
#140 = CLOSED_SHELL ( 'NONE', ( #129, #159, #10, #123, #222, #41 ) ) ;
#141 = CARTESIAN_POINT ( 'NONE',  ( 1617.999999999970200, -717.9999999999849900, 4.000000000000000000 ) ) ;
#142 = SURFACE_SIDE_STYLE ('',( #50 ) ) ;
#143 = DIRECTION ( 'NONE',  ( 0.0000000000000000000, 0.0000000000000000000, -1.000000000000000000 ) ) ;
#144 =( NAMED_UNIT ( * ) SI_UNIT ( $, .STERADIAN. ) SOLID_ANGLE_UNIT ( ) );
#145 = COLOUR_RGB ( '',0.5686274509803921400, 0.6078431372549019100, 0.6470588235294118000 ) ;
#146 = AXIS2_PLACEMENT_3D ( 'NONE', #134, #147, #186 ) ;
#147 = DIRECTION ( 'NONE',  ( 0.0000000000000000000, 1.000000000000000000, 0.0000000000000000000 ) ) ;
#148 = APPLICATION_PROTOCOL_DEFINITION ( 'draft international standard', 'automotive_design', 1998, #228 ) ;
#149 = DIRECTION ( 'NONE',  ( 0.0000000000000000000, -1.000000000000000000, -0.0000000000000000000 ) ) ;
#150 = CARTESIAN_POINT ( 'NONE',  ( 1617.999999999970200, 282.0000000000150100, 4.000000000000000000 ) ) ;
#151 = VERTEX_POINT ( 'NONE', #141 ) ;
#152 = UNCERTAINTY_MEASURE_WITH_UNIT (LENGTH_MEASURE( 1.000000000000000100E-005 ), #94, 'distance_accuracy_value', 'NONE');
#153 = PLANE ( 'NONE',  #232 ) ;
#154 = LINE ( 'NONE', #150, #195 ) ;
#155 = VERTEX_POINT ( 'NONE', #74 ) ;
#156 = STYLED_ITEM ( 'NONE', ( #16 ), #199 ) ;
#157 = DIRECTION ( 'NONE',  ( 0.0000000000000000000, 0.0000000000000000000, 1.000000000000000000 ) ) ;
#158 = CARTESIAN_POINT ( 'NONE',  ( -682.0000000000350200, 282.0000000000150100, 0.0000000000000000000 ) ) ;
#159 = ADVANCED_FACE ( 'NONE', ( #209 ), #131, .F. ) ;
#160 = EDGE_CURVE ( 'NONE', #185, #151, #224, .T. ) ;
#161 = DIRECTION ( 'NONE',  ( -1.000000000000000000, 0.0000000000000000000, 0.0000000000000000000 ) ) ;
#162 = FACE_OUTER_BOUND ( 'NONE', #166, .T. ) ;
#163 = CARTESIAN_POINT ( 'NONE',  ( 1617.999999999970200, 282.0000000000150100, 4.000000000000000000 ) ) ;
#164 = STYLED_ITEM ( 'NONE', ( #97 ), #41 ) ;
#165 = PLANE ( 'NONE',  #146 ) ;
#166 = EDGE_LOOP ( 'NONE', ( #190, #20, #203, #98 ) ) ;
#167 = AXIS2_PLACEMENT_3D ( 'NONE', #223, #34, #12 ) ;
#168 = UNCERTAINTY_MEASURE_WITH_UNIT (LENGTH_MEASURE( 1.000000000000000100E-005 ), #23, 'distance_accuracy_value', 'NONE');
#169 = SURFACE_STYLE_USAGE ( .BOTH. , #13 ) ;
#170 =( GEOMETRIC_REPRESENTATION_CONTEXT ( 3 ) GLOBAL_UNCERTAINTY_ASSIGNED_CONTEXT ( ( #179 ) ) GLOBAL_UNIT_ASSIGNED_CONTEXT ( ( #188, #80, #229 ) ) REPRESENTATION_CONTEXT ( 'NONE', 'WORKASPACE' ) );
#171 = VERTEX_POINT ( 'NONE', #87 ) ;
#172 = DIRECTION ( 'NONE',  ( 0.0000000000000000000, -1.000000000000000000, -0.0000000000000000000 ) ) ;
#173 = LINE ( 'NONE', #9, #216 ) ;
#174 = AXIS2_PLACEMENT_3D ( 'NONE', #177, #161, #157 ) ;
#175 = PLANE ( 'NONE',  #106 ) ;
#176 = DIRECTION ( 'NONE',  ( 0.0000000000000000000, 0.0000000000000000000, 1.000000000000000000 ) ) ;
#177 = CARTESIAN_POINT ( 'NONE',  ( 1617.999999999970200, -717.9999999999849900, 4.000000000000000000 ) ) ;
#178 = CARTESIAN_POINT ( 'NONE',  ( 1617.999999999970200, 282.0000000000150100, 0.0000000000000000000 ) ) ;
#179 = UNCERTAINTY_MEASURE_WITH_UNIT (LENGTH_MEASURE( 1.000000000000000100E-005 ), #188, 'distance_accuracy_value', 'NONE');
#180 = EDGE_CURVE ( 'NONE', #185, #155, #189, .T. ) ;
#181 = PRODUCT_DEFINITION_SHAPE ( 'NONE', 'NONE',  #96 ) ;
#182 = LINE ( 'NONE', #14, #19 ) ;
#183 = LINE ( 'NONE', #194, #90 ) ;
#184 = SURFACE_STYLE_USAGE ( .BOTH. , #35 ) ;
#185 = VERTEX_POINT ( 'NONE', #85 ) ;
#186 = DIRECTION ( 'NONE',  ( 0.0000000000000000000, -0.0000000000000000000, 1.000000000000000000 ) ) ;
#187 = EDGE_CURVE ( 'NONE', #171, #185, #112, .T. ) ;
#188 =( LENGTH_UNIT ( ) NAMED_UNIT ( * ) SI_UNIT ( .MILLI., .METRE. ) );
#189 = LINE ( 'NONE', #101, #202 ) ;
#190 = ORIENTED_EDGE ( 'NONE', *, *, #227, .T. ) ;
#191 = ORIENTED_EDGE ( 'NONE', *, *, #7, .F. ) ;
#192 = EDGE_CURVE ( 'NONE', #151, #99, #182, .T. ) ;
#193 =( LENGTH_UNIT ( ) NAMED_UNIT ( * ) SI_UNIT ( .MILLI., .METRE. ) );
#194 = CARTESIAN_POINT ( 'NONE',  ( -682.0000000000350200, -717.9999999999849900, 0.0000000000000000000 ) ) ;
#195 = VECTOR ( 'NONE', #208, 1000.000000000000000 ) ;
#196 = FILL_AREA_STYLE ('',( #71 ) ) ;
#197 = EDGE_CURVE ( 'NONE', #37, #81, #136, .T. ) ;
#198 = CARTESIAN_POINT ( 'NONE',  ( -682.0000000000350200, -717.9999999999849900, 4.000000000000000000 ) ) ;
#199 = ADVANCED_BREP_SHAPE_REPRESENTATION ( '5HSWG002_CNAJF00', ( #113, #66 ), #78 ) ;
#200 = SURFACE_STYLE_USAGE ( .BOTH. , #142 ) ;
#201 = PRODUCT_RELATED_PRODUCT_CATEGORY ( 'part', '', ( #40 ) ) ;
#202 = VECTOR ( 'NONE', #38, 1000.000000000000000 ) ;
#203 = ORIENTED_EDGE ( 'NONE', *, *, #180, .T. ) ;
#204 =( NAMED_UNIT ( * ) PLANE_ANGLE_UNIT ( ) SI_UNIT ( $, .RADIAN. ) );
#205 =( NAMED_UNIT ( * ) SI_UNIT ( $, .STERADIAN. ) SOLID_ANGLE_UNIT ( ) );
#206 = COLOUR_RGB ( '',0.7529411764705882200, 0.7529411764705882200, 0.7529411764705882200 ) ;
#207 =( GEOMETRIC_REPRESENTATION_CONTEXT ( 3 ) GLOBAL_UNCERTAINTY_ASSIGNED_CONTEXT ( ( #168 ) ) GLOBAL_UNIT_ASSIGNED_CONTEXT ( ( #23, #51, #144 ) ) REPRESENTATION_CONTEXT ( 'NONE', 'WORKASPACE' ) );
#208 = DIRECTION ( 'NONE',  ( -0.0000000000000000000, 0.0000000000000000000, 1.000000000000000000 ) ) ;
#209 = FACE_OUTER_BOUND ( 'NONE', #116, .T. ) ;
#210 = ORIENTED_EDGE ( 'NONE', *, *, #192, .F. ) ;
#211 = FACE_OUTER_BOUND ( 'NONE', #63, .T. ) ;
#212 = EDGE_CURVE ( 'NONE', #81, #99, #154, .T. ) ;
#213 = ORIENTED_EDGE ( 'NONE', *, *, #197, .T. ) ;
#214 = DIRECTION ( 'NONE',  ( 0.0000000000000000000, -0.0000000000000000000, -1.000000000000000000 ) ) ;
#215 =( NAMED_UNIT ( * ) SI_UNIT ( $, .STERADIAN. ) SOLID_ANGLE_UNIT ( ) );
#216 = VECTOR ( 'NONE', #219, 1000.000000000000000 ) ;
#217 = PRESENTATION_STYLE_ASSIGNMENT (( #200 ) ) ;
#218 = ORIENTED_EDGE ( 'NONE', *, *, #59, .F. ) ;
#219 = DIRECTION ( 'NONE',  ( -0.0000000000000000000, -0.0000000000000000000, 1.000000000000000000 ) ) ;
#220 = STYLED_ITEM ( 'NONE', ( #75 ), #129 ) ;
#221 = ORIENTED_EDGE ( 'NONE', *, *, #67, .T. ) ;
#222 = ADVANCED_FACE ( 'NONE', ( #162 ), #165, .F. ) ;
#223 = CARTESIAN_POINT ( 'NONE',  ( -682.0000000000350200, -717.9999999999849900, 0.0000000000000000000 ) ) ;
#224 = LINE ( 'NONE', #198, #108 ) ;
#225 = SURFACE_STYLE_FILL_AREA ( #65 ) ;
#226 = EDGE_LOOP ( 'NONE', ( #218, #128, #17, #191 ) ) ;
#227 = EDGE_CURVE ( 'NONE', #37, #151, #138, .T. ) ;
#228 = APPLICATION_CONTEXT ( 'automotive_design' ) ;
#229 =( NAMED_UNIT ( * ) SI_UNIT ( $, .STERADIAN. ) SOLID_ANGLE_UNIT ( ) );
#230 = PRODUCT_CONTEXT ( 'NONE', #115, 'mechanical' ) ;
#231 = VECTOR ( 'NONE', #107, 1000.000000000000000 ) ;
#232 = AXIS2_PLACEMENT_3D ( 'NONE', #45, #100, #214 ) ;
ENDSEC;
END-ISO-10303-21;
