ISO-10303-21;
HEADER;
FILE_DESCRIPTION (( 'STEP AP214' ),
    '1' );
FILE_NAME ('5HAPL005',
    '2019-02-01T12:50:10',
    ( '' ),
    ('JUGARD+KÜNSTNER GmbH'),
    'SwSTEP 2.0',
    'SolidWorks 2017',
    '' );
FILE_SCHEMA (( 'AUTOMOTIVE_DESIGN' ));
ENDSEC;

DATA;
#1 = FACE_OUTER_BOUND ( 'NONE', #193, .T. ) ;
#2 = CARTESIAN_POINT ( 'NONE',  ( -1000.000000000000000, 500.0000000000000000, 1.893266172530430100E-027 ) ) ;
#3 = SURFACE_SIDE_STYLE ('',( #90 ) ) ;
#4 = PRESENTATION_LAYER_ASSIGNMENT (  '', '', ( #44 ) ) ;
#5 = VERTEX_POINT ( 'NONE', #136 ) ;
#6 = MECHANICAL_DESIGN_GEOMETRIC_PRESENTATION_REPRESENTATION (  '', ( #44 ), #185 ) ;
#7 = ADVANCED_FACE ( 'NONE', ( #79 ), #13, .T. ) ;
#8 = ADVANCED_FACE ( 'NONE', ( #88 ), #164, .T. ) ;
#9 = VECTOR ( 'NONE', #57, 1000.000000000000000 ) ;
#10 = CARTESIAN_POINT ( 'NONE',  ( 0.0000000000000000000, 500.0000000000000000, 1.893266172530430100E-027 ) ) ;
#11 = LINE ( 'NONE', #2, #135 ) ;
#12 =( GEOMETRIC_REPRESENTATION_CONTEXT ( 3 ) GLOBAL_UNCERTAINTY_ASSIGNED_CONTEXT ( ( #51 ) ) GLOBAL_UNIT_ASSIGNED_CONTEXT ( ( #22, #83, #144 ) ) REPRESENTATION_CONTEXT ( 'NONE', 'WORKASPACE' ) );
#13 = PLANE ( 'NONE',  #50 ) ;
#14 =( NAMED_UNIT ( * ) SI_UNIT ( $, .STERADIAN. ) SOLID_ANGLE_UNIT ( ) );
#15 = VECTOR ( 'NONE', #61, 1000.000000000000000 ) ;
#16 = EDGE_LOOP ( 'NONE', ( #159, #103, #60, #98 ) ) ;
#17 = DIRECTION ( 'NONE',  ( -0.0000000000000000000, 1.000000000000000000, 0.0000000000000000000 ) ) ;
#18 = DIRECTION ( 'NONE',  ( -1.000000000000000000, -0.0000000000000000000, 0.0000000000000000000 ) ) ;
#19 = DIRECTION ( 'NONE',  ( 1.000000000000000000, 0.0000000000000000000, -0.0000000000000000000 ) ) ;
#20 = ORIENTED_EDGE ( 'NONE', *, *, #100, .T. ) ;
#21 = ADVANCED_FACE ( 'NONE', ( #119 ), #75, .T. ) ;
#22 =( LENGTH_UNIT ( ) NAMED_UNIT ( * ) SI_UNIT ( .MILLI., .METRE. ) );
#23 = APPLICATION_PROTOCOL_DEFINITION ( 'draft international standard', 'automotive_design', 1998, #145 ) ;
#24 = ORIENTED_EDGE ( 'NONE', *, *, #59, .F. ) ;
#25 = VERTEX_POINT ( 'NONE', #196 ) ;
#26 = ORIENTED_EDGE ( 'NONE', *, *, #117, .T. ) ;
#27 = DIRECTION ( 'NONE',  ( 0.0000000000000000000, -0.0000000000000000000, -1.000000000000000000 ) ) ;
#28 = AXIS2_PLACEMENT_3D ( 'NONE', #166, #76, #200 ) ;
#29 = ORIENTED_EDGE ( 'NONE', *, *, #150, .T. ) ;
#30 = DIRECTION ( 'NONE',  ( -1.000000000000000000, 0.0000000000000000000, 0.0000000000000000000 ) ) ;
#31 = CARTESIAN_POINT ( 'NONE',  ( -1000.000000000000000, 500.0000000000000000, 1.893266172530430100E-027 ) ) ;
#32 = LINE ( 'NONE', #49, #179 ) ;
#33 = VERTEX_POINT ( 'NONE', #31 ) ;
#34 = CARTESIAN_POINT ( 'NONE',  ( 1000.000000000000000, -500.0000000000000000, 1.893266172530430100E-027 ) ) ;
#35 = SURFACE_STYLE_USAGE ( .BOTH. , #172 ) ;
#36 = ORIENTED_EDGE ( 'NONE', *, *, #127, .F. ) ;
#37 =( NAMED_UNIT ( * ) SI_UNIT ( $, .STERADIAN. ) SOLID_ANGLE_UNIT ( ) );
#38 = EDGE_CURVE ( 'NONE', #104, #174, #65, .T. ) ;
#39 = ORIENTED_EDGE ( 'NONE', *, *, #91, .F. ) ;
#40 = AXIS2_PLACEMENT_3D ( 'NONE', #10, #94, #124 ) ;
#41 = EDGE_LOOP ( 'NONE', ( #134, #177, #24, #20 ) ) ;
#42 = PRODUCT_DEFINITION ( 'UNKNOWN', '', #97, #110 ) ;
#43 = PLANE ( 'NONE',  #54 ) ;
#44 = STYLED_ITEM ( 'NONE', ( #161 ), #167 ) ;
#45 =( LENGTH_UNIT ( ) NAMED_UNIT ( * ) SI_UNIT ( .MILLI., .METRE. ) );
#46 = DIRECTION ( 'NONE',  ( 0.0000000000000000000, -0.0000000000000000000, 1.000000000000000000 ) ) ;
#47 = SHAPE_DEFINITION_REPRESENTATION ( #129, #58 ) ;
#48 = FACE_OUTER_BOUND ( 'NONE', #111, .T. ) ;
#49 = CARTESIAN_POINT ( 'NONE',  ( -1000.000000000000000, -2.842170943040400200E-013, 12.00000000000000000 ) ) ;
#50 = AXIS2_PLACEMENT_3D ( 'NONE', #165, #123, #27 ) ;
#51 = UNCERTAINTY_MEASURE_WITH_UNIT (LENGTH_MEASURE( 1.000000000000000100E-005 ), #22, 'distance_accuracy_value', 'NONE');
#52 = FILL_AREA_STYLE_COLOUR ( '', #197 ) ;
#53 = DIRECTION ( 'NONE',  ( 0.0000000000000000000, 0.0000000000000000000, 1.000000000000000000 ) ) ;
#54 = AXIS2_PLACEMENT_3D ( 'NONE', #112, #142, #19 ) ;
#55 = ORIENTED_EDGE ( 'NONE', *, *, #66, .T. ) ;
#56 = VERTEX_POINT ( 'NONE', #162 ) ;
#57 = DIRECTION ( 'NONE',  ( 0.0000000000000000000, 0.0000000000000000000, -1.000000000000000000 ) ) ;
#58 = ADVANCED_BREP_SHAPE_REPRESENTATION ( '5HAPL005_CNAJF00', ( #167, #86 ), #12 ) ;
#59 = EDGE_CURVE ( 'NONE', #146, #104, #170, .T. ) ;
#60 = ORIENTED_EDGE ( 'NONE', *, *, #182, .F. ) ;
#61 = DIRECTION ( 'NONE',  ( -0.0000000000000000000, 1.000000000000000000, 0.0000000000000000000 ) ) ;
#62 = PLANE ( 'NONE',  #28 ) ;
#63 = LINE ( 'NONE', #171, #102 ) ;
#64 = CARTESIAN_POINT ( 'NONE',  ( -1.421085471520200100E-013, 500.0000000000000000, 12.00000000000000000 ) ) ;
#65 = LINE ( 'NONE', #199, #9 ) ;
#66 = EDGE_CURVE ( 'NONE', #56, #33, #183, .T. ) ;
#67 = SURFACE_STYLE_FILL_AREA ( #99 ) ;
#68 = DIRECTION ( 'NONE',  ( 1.000000000000000000, 0.0000000000000000000, 0.0000000000000000000 ) ) ;
#69 = ORIENTED_EDGE ( 'NONE', *, *, #160, .T. ) ;
#70 = ORIENTED_EDGE ( 'NONE', *, *, #163, .F. ) ;
#71 = PRODUCT ( '5HAPL005_CNAJF00', '5HAPL005_CNAJF00', '', ( #81 ) ) ;
#72 = VECTOR ( 'NONE', #18, 1000.000000000000000 ) ;
#73 = ORIENTED_EDGE ( 'NONE', *, *, #160, .F. ) ;
#74 = DIRECTION ( 'NONE',  ( 0.0000000000000000000, 0.0000000000000000000, 1.000000000000000000 ) ) ;
#75 = PLANE ( 'NONE',  #158 ) ;
#76 = DIRECTION ( 'NONE',  ( 1.000000000000000000, 0.0000000000000000000, 0.0000000000000000000 ) ) ;
#77 = LINE ( 'NONE', #201, #15 ) ;
#78 = DIRECTION ( 'NONE',  ( 0.0000000000000000000, -0.0000000000000000000, -1.000000000000000000 ) ) ;
#79 = FACE_OUTER_BOUND ( 'NONE', #41, .T. ) ;
#80 = DIRECTION ( 'NONE',  ( 0.0000000000000000000, 0.0000000000000000000, 1.000000000000000000 ) ) ;
#81 = PRODUCT_CONTEXT ( 'NONE', #145, 'mechanical' ) ;
#82 = STYLED_ITEM ( 'NONE', ( #109 ), #58 ) ;
#83 =( NAMED_UNIT ( * ) PLANE_ANGLE_UNIT ( ) SI_UNIT ( $, .RADIAN. ) );
#84 = FILL_AREA_STYLE ('',( #52 ) ) ;
#85 =( LENGTH_UNIT ( ) NAMED_UNIT ( * ) SI_UNIT ( .MILLI., .METRE. ) );
#86 = AXIS2_PLACEMENT_3D ( 'NONE', #96, #53, #68 ) ;
#87 = LINE ( 'NONE', #143, #140 ) ;
#88 = FACE_OUTER_BOUND ( 'NONE', #192, .T. ) ;
#89 = ADVANCED_FACE ( 'NONE', ( #1 ), #43, .F. ) ;
#90 = SURFACE_STYLE_FILL_AREA ( #84 ) ;
#91 = EDGE_CURVE ( 'NONE', #5, #174, #63, .T. ) ;
#92 = VECTOR ( 'NONE', #78, 1000.000000000000000 ) ;
#93 = PRESENTATION_LAYER_ASSIGNMENT (  '', '', ( #82 ) ) ;
#94 = DIRECTION ( 'NONE',  ( 0.0000000000000000000, 1.000000000000000000, 0.0000000000000000000 ) ) ;
#95 = CARTESIAN_POINT ( 'NONE',  ( -1.421085471520200100E-013, -2.842170943040400200E-013, 12.00000000000000000 ) ) ;
#96 = CARTESIAN_POINT ( 'NONE',  ( 0.0000000000000000000, 0.0000000000000000000, 0.0000000000000000000 ) ) ;
#97 = PRODUCT_DEFINITION_FORMATION_WITH_SPECIFIED_SOURCE ( 'ANY', '', #71, .NOT_KNOWN. ) ;
#98 = ORIENTED_EDGE ( 'NONE', *, *, #117, .F. ) ;
#99 = FILL_AREA_STYLE ('',( #101 ) ) ;
#100 = EDGE_CURVE ( 'NONE', #146, #5, #131, .T. ) ;
#101 = FILL_AREA_STYLE_COLOUR ( '', #194 ) ;
#102 = VECTOR ( 'NONE', #186, 1000.000000000000000 ) ;
#103 = ORIENTED_EDGE ( 'NONE', *, *, #100, .F. ) ;
#104 = VERTEX_POINT ( 'NONE', #125 ) ;
#105 = ORIENTED_EDGE ( 'NONE', *, *, #155, .T. ) ;
#106 = AXIS2_PLACEMENT_3D ( 'NONE', #95, #80, #202 ) ;
#107 = ORIENTED_EDGE ( 'NONE', *, *, #38, .T. ) ;
#108 = DIRECTION ( 'NONE',  ( -1.000000000000000000, -0.0000000000000000000, 0.0000000000000000000 ) ) ;
#109 = PRESENTATION_STYLE_ASSIGNMENT (( #176 ) ) ;
#110 = PRODUCT_DEFINITION_CONTEXT ( 'detailed design', #157, 'design' ) ;
#111 = EDGE_LOOP ( 'NONE', ( #181, #105, #120, #147 ) ) ;
#112 = CARTESIAN_POINT ( 'NONE',  ( -1.421085471520200100E-013, -2.842170943040400200E-013, 1.893266172530430100E-027 ) ) ;
#113 = DIRECTION ( 'NONE',  ( -0.0000000000000000000, -1.000000000000000000, 0.0000000000000000000 ) ) ;
#114 = CARTESIAN_POINT ( 'NONE',  ( -1000.000000000000000, -500.0000000000000000, 1.893266172530430100E-027 ) ) ;
#115 = DIRECTION ( 'NONE',  ( 1.000000000000000000, 0.0000000000000000000, -0.0000000000000000000 ) ) ;
#116 = ORIENTED_EDGE ( 'NONE', *, *, #66, .F. ) ;
#117 = EDGE_CURVE ( 'NONE', #33, #25, #11, .T. ) ;
#118 = APPLICATION_PROTOCOL_DEFINITION ( 'draft international standard', 'automotive_design', 1998, #157 ) ;
#119 = FACE_OUTER_BOUND ( 'NONE', #16, .T. ) ;
#120 = ORIENTED_EDGE ( 'NONE', *, *, #182, .T. ) ;
#121 = PRODUCT_RELATED_PRODUCT_CATEGORY ( 'part', '', ( #71 ) ) ;
#122 = VECTOR ( 'NONE', #17, 1000.000000000000000 ) ;
#123 = DIRECTION ( 'NONE',  ( 0.0000000000000000000, -1.000000000000000000, 0.0000000000000000000 ) ) ;
#124 = DIRECTION ( 'NONE',  ( 0.0000000000000000000, -0.0000000000000000000, 1.000000000000000000 ) ) ;
#125 = CARTESIAN_POINT ( 'NONE',  ( 1000.000000000000000, -500.0000000000000000, 12.00000000000000000 ) ) ;
#126 = VECTOR ( 'NONE', #191, 1000.000000000000000 ) ;
#127 = EDGE_CURVE ( 'NONE', #104, #195, #130, .T. ) ;
#128 =( NAMED_UNIT ( * ) PLANE_ANGLE_UNIT ( ) SI_UNIT ( $, .RADIAN. ) );
#129 = PRODUCT_DEFINITION_SHAPE ( 'NONE', 'NONE',  #42 ) ;
#130 = LINE ( 'NONE', #188, #122 ) ;
#131 = LINE ( 'NONE', #114, #92 ) ;
#132 = UNCERTAINTY_MEASURE_WITH_UNIT (LENGTH_MEASURE( 1.000000000000000100E-005 ), #45, 'distance_accuracy_value', 'NONE');
#133 = LINE ( 'NONE', #64, #72 ) ;
#134 = ORIENTED_EDGE ( 'NONE', *, *, #91, .T. ) ;
#135 = VECTOR ( 'NONE', #46, 1000.000000000000000 ) ;
#136 = CARTESIAN_POINT ( 'NONE',  ( -1000.000000000000000, -500.0000000000000000, 1.893266172530430100E-027 ) ) ;
#137 = CARTESIAN_POINT ( 'NONE',  ( -1000.000000000000000, -500.0000000000000000, 12.00000000000000000 ) ) ;
#138 = CARTESIAN_POINT ( 'NONE',  ( 0.0000000000000000000, 500.0000000000000000, 1.893266172530430100E-027 ) ) ;
#139 = UNCERTAINTY_MEASURE_WITH_UNIT (LENGTH_MEASURE( 1.000000000000000100E-005 ), #85, 'distance_accuracy_value', 'NONE');
#140 = VECTOR ( 'NONE', #113, 1000.000000000000000 ) ;
#141 = ORIENTED_EDGE ( 'NONE', *, *, #155, .F. ) ;
#142 = DIRECTION ( 'NONE',  ( 0.0000000000000000000, 0.0000000000000000000, 1.000000000000000000 ) ) ;
#143 = CARTESIAN_POINT ( 'NONE',  ( -1000.000000000000000, -1.421085471520200100E-013, 1.893266172530430100E-027 ) ) ;
#144 =( NAMED_UNIT ( * ) SI_UNIT ( $, .STERADIAN. ) SOLID_ANGLE_UNIT ( ) );
#145 = APPLICATION_CONTEXT ( 'automotive_design' ) ;
#146 = VERTEX_POINT ( 'NONE', #137 ) ;
#147 = ORIENTED_EDGE ( 'NONE', *, *, #59, .T. ) ;
#148 = ADVANCED_FACE ( 'NONE', ( #48 ), #153, .T. ) ;
#149 = LINE ( 'NONE', #154, #126 ) ;
#150 = EDGE_CURVE ( 'NONE', #195, #56, #149, .T. ) ;
#151 = CARTESIAN_POINT ( 'NONE',  ( -1.421085471520200100E-013, -500.0000000000000000, 12.00000000000000000 ) ) ;
#152 = EDGE_LOOP ( 'NONE', ( #69, #156, #36, #107 ) ) ;
#153 = PLANE ( 'NONE',  #106 ) ;
#154 = CARTESIAN_POINT ( 'NONE',  ( 1000.000000000000000, 500.0000000000000000, 1.893266172530430100E-027 ) ) ;
#155 = EDGE_CURVE ( 'NONE', #195, #25, #133, .T. ) ;
#156 = ORIENTED_EDGE ( 'NONE', *, *, #150, .F. ) ;
#157 = APPLICATION_CONTEXT ( 'automotive_design' ) ;
#158 = AXIS2_PLACEMENT_3D ( 'NONE', #184, #30, #74 ) ;
#159 = ORIENTED_EDGE ( 'NONE', *, *, #163, .T. ) ;
#160 = EDGE_CURVE ( 'NONE', #174, #56, #77, .T. ) ;
#161 = PRESENTATION_STYLE_ASSIGNMENT (( #35 ) ) ;
#162 = CARTESIAN_POINT ( 'NONE',  ( 1000.000000000000000, 500.0000000000000000, 1.893266172530430100E-027 ) ) ;
#163 = EDGE_CURVE ( 'NONE', #33, #5, #87, .T. ) ;
#164 = PLANE ( 'NONE',  #40 ) ;
#165 = CARTESIAN_POINT ( 'NONE',  ( 0.0000000000000000000, -500.0000000000000000, 1.893266172530430100E-027 ) ) ;
#166 = CARTESIAN_POINT ( 'NONE',  ( 1000.000000000000000, -1.421085471520200100E-013, 1.893266172530430100E-027 ) ) ;
#167 = MANIFOLD_SOLID_BREP ( 'Importiert1', #190 ) ;
#168 = CARTESIAN_POINT ( 'NONE',  ( 1000.000000000000000, 500.0000000000000000, 12.00000000000000000 ) ) ;
#169 = DIRECTION ( 'NONE',  ( 0.0000000000000000000, -1.000000000000000000, -0.0000000000000000000 ) ) ;
#170 = LINE ( 'NONE', #151, #178 ) ;
#171 = CARTESIAN_POINT ( 'NONE',  ( 0.0000000000000000000, -500.0000000000000000, 1.893266172530430100E-027 ) ) ;
#172 = SURFACE_SIDE_STYLE ('',( #67 ) ) ;
#173 =( NAMED_UNIT ( * ) PLANE_ANGLE_UNIT ( ) SI_UNIT ( $, .RADIAN. ) );
#174 = VERTEX_POINT ( 'NONE', #34 ) ;
#175 = MECHANICAL_DESIGN_GEOMETRIC_PRESENTATION_REPRESENTATION (  '', ( #82 ), #187 ) ;
#176 = SURFACE_STYLE_USAGE ( .BOTH. , #3 ) ;
#177 = ORIENTED_EDGE ( 'NONE', *, *, #38, .F. ) ;
#178 = VECTOR ( 'NONE', #115, 1000.000000000000000 ) ;
#179 = VECTOR ( 'NONE', #169, 1000.000000000000000 ) ;
#180 = ADVANCED_FACE ( 'NONE', ( #189 ), #62, .T. ) ;
#181 = ORIENTED_EDGE ( 'NONE', *, *, #127, .T. ) ;
#182 = EDGE_CURVE ( 'NONE', #25, #146, #32, .T. ) ;
#183 = LINE ( 'NONE', #138, #198 ) ;
#184 = CARTESIAN_POINT ( 'NONE',  ( -1000.000000000000000, -1.421085471520200100E-013, 1.893266172530430100E-027 ) ) ;
#185 =( GEOMETRIC_REPRESENTATION_CONTEXT ( 3 ) GLOBAL_UNCERTAINTY_ASSIGNED_CONTEXT ( ( #132 ) ) GLOBAL_UNIT_ASSIGNED_CONTEXT ( ( #45, #128, #14 ) ) REPRESENTATION_CONTEXT ( 'NONE', 'WORKASPACE' ) );
#186 = DIRECTION ( 'NONE',  ( 1.000000000000000000, 0.0000000000000000000, 0.0000000000000000000 ) ) ;
#187 =( GEOMETRIC_REPRESENTATION_CONTEXT ( 3 ) GLOBAL_UNCERTAINTY_ASSIGNED_CONTEXT ( ( #139 ) ) GLOBAL_UNIT_ASSIGNED_CONTEXT ( ( #85, #173, #37 ) ) REPRESENTATION_CONTEXT ( 'NONE', 'WORKASPACE' ) );
#188 = CARTESIAN_POINT ( 'NONE',  ( 1000.000000000000000, -2.842170943040400200E-013, 12.00000000000000000 ) ) ;
#189 = FACE_OUTER_BOUND ( 'NONE', #152, .T. ) ;
#190 = CLOSED_SHELL ( 'NONE', ( #148, #8, #180, #7, #21, #89 ) ) ;
#191 = DIRECTION ( 'NONE',  ( -0.0000000000000000000, 0.0000000000000000000, -1.000000000000000000 ) ) ;
#192 = EDGE_LOOP ( 'NONE', ( #55, #26, #141, #29 ) ) ;
#193 = EDGE_LOOP ( 'NONE', ( #70, #116, #73, #39 ) ) ;
#194 = COLOUR_RGB ( '',1.000000000000000000, 1.000000000000000000, 1.000000000000000000 ) ;
#195 = VERTEX_POINT ( 'NONE', #168 ) ;
#196 = CARTESIAN_POINT ( 'NONE',  ( -1000.000000000000000, 500.0000000000000000, 12.00000000000000000 ) ) ;
#197 = COLOUR_RGB ( '',0.7529411764705882200, 0.7529411764705882200, 0.7529411764705882200 ) ;
#198 = VECTOR ( 'NONE', #108, 1000.000000000000000 ) ;
#199 = CARTESIAN_POINT ( 'NONE',  ( 1000.000000000000000, -500.0000000000000000, 1.893266172530430100E-027 ) ) ;
#200 = DIRECTION ( 'NONE',  ( 0.0000000000000000000, 0.0000000000000000000, -1.000000000000000000 ) ) ;
#201 = CARTESIAN_POINT ( 'NONE',  ( 1000.000000000000000, -1.421085471520200100E-013, 1.893266172530430100E-027 ) ) ;
#202 = DIRECTION ( 'NONE',  ( 1.000000000000000000, 0.0000000000000000000, -0.0000000000000000000 ) ) ;
ENDSEC;
END-ISO-10303-21;
